Song name
# A B C D E F G H I J K L M N O P Q R S T U V W X Y Z

The Holdup - Still The Same chords

Highlighted       Show chord diagrams
-----------------------------------------------------------------
Still The Same  The Holdup
-----------------------------------------------------------------
Tabbed by: Brian Zucker
Email: bnzucker@comcast.net
Tuning: Standard
Verse
    D#          A#           F
e|---6---6---6---6---6---6---1---1-------------------------------|
B|---8---8---8---8---6---6---1---1-------------------------------|
G|---8---8---8---8---7---7---2---2-------------------------------|
D|---8---8---8---8---8---8---3---3-------------------------------|
A|---6---6---6---6---8---8---3---3-------------------------------|
E|---x---x---x---x---6---6---1---1-------------------------------|

Chorus
   D#              A#              Gm               F
e|--6---6---6---6---6---6---6---6---3---3---3---3---1---1---1---1|
B|--8---8---8---8---6---6---6---6---3---3---3---3---1---1---1---1|
G|--8---8---8---8---7---7---7---7---3---3---3---3---2---2---2---2|
D|--8---8---8---8---8---8---8---8---5---5---5---5---3---3---3---3|
A|--6---6---6---6---8---8---8---8---5---5---5---5---3---3---3---3|
E|--x---x---x---x---6---6---6---6---3---3---3---3---1---1---1---1|

Another great song on a solid album
Tap to rate this tab
 
# A B C D E F G H I J K L M N O P Q R S T U V W X Y Z