Song name
# A B C D E F G H I J K L M N O P Q R S T U V W X Y Z

The Morning Of - Reverie tab

-------------------------------------------------------------------------------
			     REVERIE - The Morning Of
-------------------------------------------------------------------------------

http://www.myspace.com/themorningof
Official website of the morning of

Tuning: standard

sorry guys but you're gonna have to work out the strumming youself, it isn't that 
hard, just listen to the song, any corrections, please post in comments.

Intro Part 1:
Guitar 1:

e|-------12-------12-------------10-------10---------------------------------|
B|---------------------------------------------------------------------------|
G|----12-------12-------12----12-------12-------12---------------------------|
D|-10-------10-------10----10-------10-------10------------------------------|
A|---------------------------------------------------------------------------|
E|---------------------------------------------------------------------------|

Guitar 2 comes in after Guitar 1 plays the above. While Guitar 2 plays, Guitar 1 
repeats the above 4x.

Guitar 2: work out strumming yourself.

e|---------------------------------------------------------------------------|
B|---------------------------------------------------------------------------|
G|-----------------7---5-----------------------------------------------------|
D|-3---5---7---3---7---5-----------------------------------------------------|
A|-3---5---7---3---5---3-----------------------------------------------------|
E|-1---3---5---1-------------------------------------------------------------|
  Play 2x

Repeat Guitar 2 part for verse until pre-chorus

Pre-Chorus:

Hold notes. 4x
e|--------------------------------------|
B|--------------------------------------|
G|--5-----------------------------------|
D|--5----------5---------7--------------|
A|--3----------5---------7--------------|
E|-------------3---------5--------------|
         I am falling towards the coast,
     Let the waves crash over me...

Chorus:
                
e|---------------------------------------------------------------------------|
B|---------------------------------------------------------------------------|
G|--------------5------------------------------------------------------------|
D|--3---5---7---5---5---3----------------------------------------------------|
A|--3---5---7---3---5---3----------------------------------------------------|
E|--1---3---5-------3---1----------------------------------------------------|
                       


e|---------------------------------------------------------------------------|
B|---------------------------------------------------------------------------|
G|-------------5-------------------------------------------------------------|
D|-3---5---7---5-------------------------------------------------------------|
A|-3---5---7---3-------------------------------------------------------------|
E|-1---3---5-----------------------------------------------------------------|
              Hold.

Play intro, then play up til the bridge in the same way.

Bridge:

e|---------------------------------------------------------------------------|
B|---------------------------------------------------------------------------|
G|--5------------------------------------------------------------------------|
D|--5------------5---------3-------------------------------------------------|
A|--3------------5---------3-------------------------------------------------|
E|---------------3---------1-------------------------------------------------|
   They say the wind is everyone that you've ever loved,


e|---------------------------------------------------------------------------|
B|---------------------------------------------------------------------------|
G|--5------------------------------------------------------------------------|
D|--5------------5---------------3-------------------------------------------|
A|--3------------5---------------3-------------------------------------------|
E|---------------3---------------1-------------------------------------------|
  Grazing their lips upon your cheek, spending forever in reverie

e|---------------------------------------------------------------------------|
B|---------------------------------------------------------------------------|
G|---------------------------------------------------------------------------|
D|---7-----------5------------3----------------------------------------------|
A|---7-----------5------------3----------------------------------------------|
E|---5-----------3------------1----------------------------------------------|
   They say the wind is everyone that you've ever loved,

e|---------------------------------------------------------------------------|
B|---------------------------------------------------------------------------|
G|---------------------------------------------------------------------------|
D|---7------------5---------------3------------------------------------------|
A|---7------------5---------------3------------------------------------------|
E|---5------------3---------------1------------------------------------------|
   Grazing their lips upon your cheek, spending forever in reverie


Repeat chorus until end. enjoy!

| /  slide up
| \  slide down
| h  hammer-on
| p  pull-off
| ~  vibrato
| +  harmonic
| x  Mute note
===============================================================================
Tap to rate this tab
# A B C D E F G H I J K L M N O P Q R S T U V W X Y Z