Song name
# A B C D E F G H I J K L M N O P Q R S T U V W X Y Z

The Morning Of - Dance With Me tab

Artist: The Morning Of
Song: Dance With Me
Album: The Way I Fell In
Tabbed By: Matt Florio; myspace.com/mattflorio2
email: shempashland@yahoo.com

Standard Tuning for Guitar 1
Drop D for Guitar 2

Intro/Verse

Guitar 1
|-------------------------------|
|-------------------------------|
|-------------------------------|
|---5-55-5-55-5-55-9-1212-------|
|---5-55-5-55-5-55-9-1212-------|
|---3-33-3-33-3-33-7-1010-------|
Pm    ..   ..   .. 
 
Guitar 2
|---------------------------|
|---7-77-7-77-7-77----77----|
|---7-77-7-77-7-77--0-77----|
|---5-55-5-55-5-55-11-xx----|
|---5-55-5-55-5-55-12-55----|
|---5-55-5-55-5-55--9-00----|
Pm    ..   ..   ..
 
Either Guitar Harmonics in the Intro
|-----------------|
|-----------------|
|----7*-----------|
|--9*--7*---------|
|-----------------|
|-----------------|


then the fast part 
-Guitar 1 tremolo pick the root notes
-Guitar 2 plays its chords but in a different pattern

Chorus

Guitar 1
|---------------------|
|---------------------|
|---------------7-----|
|---7---9---5---7-----|
|---7---9---5---5-----|
|---5---7---3---------|

Guitar 2
|---0---0---0---0-----|
|---0---0---0---0-----|
|---7---7---7---7-----|
|---7---0---7---7-----|
|---7---9---5---5-----|
|---7---9---5---0-----|

Intro (fast part)

Verse 2


Guitar 1 (quiet part)
|-----------------------|
|-----------------------|
|-----------------------|
|---5~---9~--11~--------|
|---5~---9~--12~--------|
|---3~---7~--10~--------|

Guitar 2 (quiet part)
|--------------------------|
|-------7------11------7---|
|--------7-------12-----7--|
|--------------------0-----|
|-----5------9-----5-------|
|---5------9---------------|
"where only as young..."

Bridge
Guitar 1
Strum each about 8x
|-----------------|
|-----------------|
|---911-12-14-18--|
|---x-x--x--x--x--|
|---7-9-10-12-16--|
|-----------------|

Guitar 2
|--------------------------------------------|
|--------------------------------------------|
|--------------------------------------------|
|---22222222-77777777-77777777/9-7-----------|
|---22222222-55555555-55555555/9-7-----------|
|---22222222-44444444-55555555/9-7-----------|
"the city brought.."

Chorus

then before the Outro (which is the Intro)
this part is played

|-----------------------------------------|
|-----------------------------------------|
|-----------------------------------------|
|---22222222-77777777-77777777-77777777---|
|---22222222-55555555-55555555-77777777---|
|---22222222-44444444-55555555-77777777---|
"Dance with me..."
Tap to rate this tab
 
# A B C D E F G H I J K L M N O P Q R S T U V W X Y Z