Song name
# A B C D E F G H I J K L M N O P Q R S T U V W X Y Z

The Morning Of - Shine chords

Highlighted       Show chord diagrams
Tabbed by: Robbie Cotten
Email: robert_cotten@yahoo.com

Tuning: Standard (Capo on 6th fret)

I haven't seen many tabs for this song, so I'm tabbing it for everyone who needs this to
for a girl. Or just because it's an amazing song.

Chords

G     320022
Cadd9 032022
Em7   022022
G/F#  200233

Intro: Cadd9

G                       Cadd9
I step outside into the light

                              Em7
The sun is bright, I close my eyes

                        D/F#
The summer caught me by surprise


and now I'm left here waiting

G                         Cadd9
for you to tell me how it is

                      Em7
If I could only get a kiss

                        D/F#
I could make you take a risk


on a boy who wants this

G                        Cadd9
And now the sun has sunk below

                               Em7
The evening wind now starts to blow

                            D/F#
I catch the scent of *your* perfume


It lifts me higher than the moon

G       D/F#        Em7        Cadd9
I'll be fine if you stay by my side...

Chorus:
e|-------------------------------------------------------------------------|
B|-------------------------------------------------------------------------|
G|--4----------------------------------------------------------------------|
D|--4------4--------6------------------------------------------------------|
A|--2------4--------6------------------------------------------------------|
E|---------2--------4------------------------------------------------------|
   Never felt this way in my whole life
   Never had this feeling before tonight
   I can't get you off my mind
   Cause you shine, Girl Oh you know you shine


Your eyes are brighter than the sun
They make me see that you're the one
Your smile takes my breath away
and leaves me with nothing to say
You aren't like any other girl
that I've met in this whole world
You're so much more than they can be
So won't you please just be with me?

I'll be fine if you stay the night...

Never felt this way in my whole life
Never had this feeling before tonight
I can't get you off my mind
Cause you shine, Girl
Oh you know you shine

Bridge:
e|------------------------------------------------------------------------|
B|------------------------------------------------------------------------|
G|------------------------------------------------------------------------|
D|-6---------------5----------2-------3-----------------------------------|
A|-6---------------5----------2-------3-----------------------------------|
E|-4---------------3----------0-------1-----------------------------------|
   And I'd give up forever to see the day

   Where the two of us both could just walk away
   hand in hand.


Chorus:
Never felt this way in my whole life
Never had this feeling before tonight
I can't get you off my mind
Cause you shine, Girl
Oh you know you shine

Never felt this way in my whole life
(You shine)
Never had this feeling before tonight
(Oh you know you shine)
I can't get you off my mind
(You shine)
Cause you shine, Girl
Oh you know you shine!

(I give credit to this site for the lyrics)
http://www.sweetslyrics.com/564835.The%20Morning%20Of%20-%20Shine.html

Find More lyrics at www.sweetslyrics.com

"I'm almost 100% sure these are right. If you have any problems, please send me an email."
Tap to rate this tab
 
# A B C D E F G H I J K L M N O P Q R S T U V W X Y Z