Song name
# A B C D E F G H I J K L M N O P Q R S T U V W X Y Z

The Used - Hands And Faces tab

This song was released today. (21. 02. 2012) I bought it on iTunes and got addicted! :D
and this is how i play it :)

-------------------------------------------------------------------------------
                Hands And Faces - The Used
-------------------------------------------------------------------------------
Tabbed by: Paecemaker
Email: martin.jurus@gmail.com

Tuning: Drop D

Verse:

e|---------------------------------------------------------------------------|
B|-8--8--8--8--5--5--4--4--5--5--4--4--2--2--4--4----------------------------|
G|-9--9--9--9--5--5--4--4--5--5--4--4--2--2--4--4----------------------------|
D|---------------------------------------------------------------------------|
A|---------------------------------------------------------------------------|
D|---------------------------------------------------------------------------|

e|---------------------------------------------------------------------------|
B|-8--8--8--8--5--5--4--4--5--5--4--4--2--2----------------------------------|
G|-9--9--9--9--5--5--4--4--5--5--4--4--2--2----------------------------------|
D|---------------------------------------------------------------------------|
A|---------------------------------------------------------------------------|
D|---------------------------------------------------------------------------|

e|---------------------------------------------------------------------------|
B|---------------------------------------------------------------------------|
G|---------------------------------------------------------------------------|
D|--x--x--xxxx---------------------------------------------------------------|
A|--x--x--xxxx---------------------------------------------------------------|
D|--x--x--xxxx---------------------------------------------------------------|


CHORUS: (find out strumming pattern)

e|---------------------------------------------------------------------------|
B|---------------------------------------------------------------------------|
G|---------------------------------------------------------------------------|
D|--2---5---0---7---7542-----------------------------------------------------|
A|--2---5---0---7---7542-----------------------------------------------------|
D|--2---5---0---7---7542-----------------------------------------------------|

e|---------------------------------------------------------------------------|
B|---------------------------------------------------------------------------|
G|---------------------------------------------------------------------------|
D|--2---5---0---x--x---xxx---------------------------------------------------|
A|--2---5---0---x--x---xxx---------------------------------------------------|
D|--2---5---0---x--x---xxx---------------------------------------------------|

e|---------------------------------------------------------------------------|
B|---------------------------------------------------------------------------|
G|----------5---4------------------------------------------------------------|
D|--2---5---5---4------------------------------------------------------------|
A|--2---5---3---2------------------------------------------------------------|
D|--2---5--------------------------------------------------------------------|

e|---------------------------------------------------------------------------|
B|---------------------------------------------------------------------------|
G|---------------------------------------------------------------------------|
D|--2---5---0---x--x--xxxx----10~--------------------------------------------|
A|--2---5---0---x--x--xxxx----10~--------------------------------------------|
D|--2---5---0---x--x--xxxx----10~--------------------------------------------|


Repeat verse (just first half and then add "special guitar")

e|---------------------------------------------------------------------------|
B|---------------------------------------------------------------------------|
G|---------------------------------------------------------------------------|
D|---7542---22225--252---101010109--999---77779--999---77779--x--x---xxxx----|
A|---7542---22225--252---101010109--999---77779--999---77779--x--x---xxxx----|
D|---7542---22225--252---101010109--999---77779--999---77779--x--x---xxxx----|        
(some mute notes here)


Repeat chorus


Bridge:

I donīt have bridge at this moment, but as soon as i get it, iīll write it.


Repeat chorus


And then that "special guitar" part from verse 2 and end on this:

e|---------------------------------------------------------------------------|
B|---------------------------------------------------------------------------|
G|---------------------------------------------------------------------------|
D|---7542--------------------------------------------------------------------|
A|---7542--------------------------------------------------------------------|
D|---7542--------------------------------------------------------------------|


Thatīs all.



************************************

| /   slide up
| \   slide down
| h   hammer-on
| p   pull-off
| ~   vibrato
| +   harmonic
| x   Mute note
| b   Bend
| pb  Pre-bend
| br  Bend release
| pbr Pre-bend release
| brb Bend release bend

************************************
Tap to rate this tab
# A B C D E F G H I J K L M N O P Q R S T U V W X Y Z