Song name
# A B C D E F G H I J K L M N O P Q R S T U V W X Y Z

Three Days Grace - Wake Up tab

Song: Wake up
Artist: Three Days Grace
Tuning: Standard


Intro/Verse
|-------------------|-------------|-------------------|--------------|
|-------------------|-------------|-------------------|---0----------|
|-----------2-----1-|-------2--1~-|-------------------|-------2---1~-|
|-------4-----4-----|-----2-------|-------9---7-----7-|-----2--------|
|-----4---4-----4---|---2---------|-----7---7---7-----|--------------|
|-0h2---------------|-0-----------|-0h5-----------5---|-0-------0----|


Pre-chorus
|-----------------|-----------------|
|-----------------|-----------------|
|-----------------|-----------------|
|-4-4-4-4-6-6-6-6-|-7-7-7-7-9-9-9-9-|(last time strum last chord)
|-2-2-2-2-4-4-4-4-|-5-5-5-5-7-7-7-7-|
|-----------------|-----------------|


Chorus
|----------------------|----------------------|
|----------------------|----------------------|
|----------------------|----------------------|
|----------------------|-2-2-2-2-2--2---------|
|-2-4-4-2-4--4-2-2-2-2-|-0-0-0-0-0--0-2-2-2-2-|
|-0-2-2-0-2--2-0-0-0-0-|--------------0-0-0-0-|

|------------------------|-------------------|
|------------------------|-------------------|
|------------------------|-13-13-14-14-13-13-|
|------------6--6--7--7--|-x--x--x--x--x--x--|
|-2-4-4-2-4--4--4--5--5--|-11-11-12-12-11-11-|
|-0-2-2-0-2--------------|-------------------|

Order:
intro/verse x6
pre chorus x2
chorus x2
intro/verse x3
pre chorus x2
chorus x2
pre chorus x4
chorus x2 (first 2 bars are repeated in the beginning)
Tap to rate this tab
 
# A B C D E F G H I J K L M N O P Q R S T U V W X Y Z