Song name
# A B C D E F G H I J K L M N O P Q R S T U V W X Y Z

Toshiro Masuda - Sadness And Sorrow tab

I did not make this tab.... it's just that I could not find the appropriate tabs on this 
site so I decided to post this

                              NARUTO
                      "Sadness and Sorrow"


               Original song by: Toshiro masuda

                  Fingerstyle Arrangement by:
                        Gonšalo Martins
                        October 3rd 2010




     E  E  E  Q    Q.        E  E  E  Q    Q.        S S Q    Q.     E  E
E||--------3--2-----------|--------3--2-----------|--2-0------0------0--3--|
B||----------------3------|----------------0------|------0----3------------|
G||-----------------------|-----------------------|-----------0------------|
D||-----2-----------------|-----2-----------------|-----------2------------|
A||-----------------------|-----------------------|------------------------|
E||--0--------------------|--0--------------------|--0---------------------|


  E  E  E  Q    Q.        T  S. E  E  E  E  E  E  E     Q    Q    E  E  Q
--5-----0--------------|--2s-3--------3--2--3--5-----|--7---------5-----2----|
-----------1-----------|-----------3--------------3--|-------0---------------|
--------0-------0------|--------2--------------------|---------------2-------|
-----2-----------------|--0--------------------------|------------0----------|
--3--------------------|-----------------------------|-----------------------|
-----------------------|-----------------------------|--3--------------------|


           ^
  S S Q    Q.     E  E     E  E  E  Q    Q.        E  E  E  E  E  E  E  E
--2-0------0------0--3--|--5-----0--------------|--3-----3-----2--3--5-----|
------0----3------------|-----------1-----------|-----------------------3--|
-----------0------------|--------0-------0------|-----2-----2--------------|
-----------2------------|-----2-----------------|--0-----------------------|
------------------------|--3--------------------|--------------------------|
--0---------------------|-----------------------|--------------------------|


  E  E  E  Q    Q.        E  E  E  Q    E  E  E     E  E  E  E  E  E  Q
--0-----3--2-----------|--------3--2----0--2--3--|--5--7--0--3-----2-------|
----------------3------|----------------0--------|-----------0--3----------|
-----------------------|-------------------------|--------0-----------2----|
-----2-----------------|-----2-------------------|-------------------------|
-----------------------|-------------------------|--3--7-------------------|
--0--------------------|--0----------------------|-------------------------|


  E  E  E  E  Q    Q       E  E  E  E  Q    Q       E  E  E  E  E  E  E  E
--0-----------0---------|--3--5--3--2-------7----|--7-----------5-----2-----|
--------0----------0----|-----------0--3---------|-----------0-----------3--|
------------------------|--------0---------------|--------0--------2--------|
-----2-----2------------|-----2-------------7----|-----0--------0-----------|
------------------------|--3---------------------|--------------------------|
--0---------------------|------------------------|--3-----------------------|


  E  E  E  E  E  E  Q       E  E  E  E  Q    Q       E  E  E  E  Q    E.  S
--5--7--0--3-----2-------|--0--------3--2---------|--3--5--3--2-------------|
-----------0--3----------|-------------------0----|--------1-----3----0---0-|
--------0-----------2----|--------0---------------|-------------------------|
-------------------------|-----2------------------|-----2-------------------|
--3--7-------------------|------------------------|--3----------------------|
-------------------------|--0---------------------|-------------------------|


                             ^
  E  E  E  E  E  E  E  E     Q    Q    S S Q.        W
--0-----0-----------0-----|--0----0----2-0--------|-------------------||
-----------1-----------1--|--1-------------0------|--L----------------||
-----0-----------0--------|--0--------------------|-------------------||
--------------------------|--2--------------------|-------------------||
--3-----------3-----------|-----------------------|-------------------||
--------------------------|------------0----------|-------------------||




Duration Legend
---------------
W - whole
Q - quarter
E - 8th
S - 16th
T - 32nd
. - note dotted


Tablature Legend
----------------
L - tied note
s - legato slide
^ - brush up
Tap to rate this tab
 
# A B C D E F G H I J K L M N O P Q R S T U V W X Y Z