Guitaretab - guitar tabs
Song name
# A B C D E F G H I J K L M N O P Q R S T U V W X Y Z

Trigun - Scattered Rain tab

Hope u like this took a long time 
some parts are fuzzy but the rest u make up on your own 
Tabbed by Shadow
--------------------------------------------------------------------------
/   - slide up
\   - slide down
(#) - pedal note (let it ring)
x   - scratch

Note: Capital Letters Lead Guitar 
      Small letters Acoustic guitar

E|----------------------------------------------------------------------|
B|----------------------------------------------------------------------|
G|-----8-6/8(8)---------9-9(9)/11-8(8)---------9(9)-----8-6/8(8)--------|
D|-5-6--------------5h6--------------------5h6------5-6-----------------|
A|----------------------------------------------------------------------|
E|----------------------------------------------------------------------|


e|-------------------------------------------------------------------|
b|-------------------------------------------------------------------|
g|-------8-8--------------9-9-----8-8----------9-9--------8-8--------|
d|-------6-6--------------6-6-----6-6----------6-6--------6-6--------|
a|-------6-6--------------7-7-----6-6----------7-7--------6-6--------|
e|-------------------------------------------------------------------|



E|----------------------------------------------------------|
B|----------------------------------------------------------|
G|-----9-9(9)-11/13-8(8)--------9(9)-11p9p8h9---------------|
D|-5-6---------------------9/11-----------------------------|
A|----------------------------------------------------------|
E|----------------------------------------------------------|



e|--------------------------------------------------------------------|
b|--------------------------------------------------------------------|
g|-----9-9----------8-8--------------9------9-------------------------|
d|-----6-6----------6-6--------------6------6-------------------------|
a|-----7-7----------6-6--------------7------7-------------------------|
e|--------------------------------------------------------------------|


E|-----7-7(7)------------------------7-7(7)/9-------------------------|
B|-------------10\9-7-7(7)--------------------9\7-5/7-9(9)------------|
G|-6/8---------------------------6/8----------------------------------|
D|--------------------------------------------------------------------|
A|--------------------------------------------------------------------|
E|--------------------------------------------------------------------|


e|--------------------------------------------------------------------|
b|--------------------------------------------------------------------|
g|-----8-8----------9-9----------------8-8--------9---9---------------|
d|-----6-6----------6-6----------------6-6--------6---6---------------|
a|-----6-6----------7-7----------------6-6--------7---7---------------|
e|--------------------------------------------------------------------|



E|--------------------------------------------------------------------|
B|-9------------------------------------------------------------------|
G|---9----------------------------------------------------------------|
D|-----9-7/9(9)-9/10\9-7----------------------------------------------|
A|---------------------10-9-9(9)--------------------------------------|
E|--------------------------------------------------------------------|


e|---------------------------------------------------------------------|
b|---------------------------------------------------------------------|
g|-------4------4------------------------------------------------------|
d|-------4------4------------------------------------------------------|
a|-------2------2------------------------------------------------------|
e|---------------------------------------------------------------------|

No lead here


e|---x----------------------------------------------------------------|
b|---5?---------------------------------------------------------------|
g|---4----------------------------------------------------------------|
d|---4----------------------------------------------------------------|
a|---2----------------------------------------------------------------|
e|---x----------------------------------------------------------------|

Lead comes back in!


E|--------------------------------------------------------------------|
B|--------------------------------------10/12(12)---------------------|
G|--------------------------------------------------------------------|
D|--------------------------------------------------------------------|
A|--------------------------------------------------------------------|
E|--------------------------------------------------------------------|


e|--------------------------------------------------------------------|
b|------3---3-3-3-3---3-3-3-2-2-2---2---------------------------------|
g|--------------------------2-2-2---2---------------------------------|
d|------2---2-2-2-2---2-2-2-2-2-2---2---------------------------------|
a|------2---2-2-2-2---2-2-2-------------------------------------------|
e|-0(0)---------------------------------------------------------------|


[ Tab from: http://www.guitaretab.com/t/trigun/89626.html ]
E|--------------------------------------------------------------------|
B|--------------------------------------------------------------------|
G|------9(9)----------------------------------------------------------|
D|-------------------------------------8/9-7h9------------------------|
A|--------------------------------------------------------------------|
E|--------------------------------------------------------------------|


e|--------------------------------------------------------------------|
b|------3---3-3-3-3---3-3-3-2-2-2---2---------------------------------|
g|--------------------------2-2-2---2---------------------------------|
d|------2---2-2-2-2---2-2-2-2-2-2---2---------------------------------|
a|------2---2-2-2-2---2-2-2-------------------------------------------|
e|-0(0)---------------------------------------------------------------|




E|---------------------------------------------------------------------|
B|------------8h10-/12(12)---------------------------------------------|
G|-7h9(9)-7h9----------------------------12----------------------------|
D|------------------------------------------9------------------7-------|
A|--------------------------------------------10----------7-10---------|
E|-----------------------------------------------12--7h10--------------|

e|---------------------------------------------------------------------|
b|------3---3-3-3-3---3-3-3-2-2-2---2----------------------------------|
g|--------------------------2-2-2---2----------------------------------|
d|------2---2-2-2-2---2-2-2-2-2-2---2----------------------------------|
a|------2---2-2-2-2---2-2-2--------------------------------------------|
e|-0(0)----------------------------------------------------------------|


E|--------------------------------------------------------------------|
B|--------------------------------------------------------------------|
G|--------------------------------------------------------------------|
D|----7/9-------------------------------------------------------------|
A|-10-----10-7-/10-10-7-----------------------------------------------|
E|--------------------------------------------------------------------|

e|--------------------------------------------------------------------|
b|------3---3-3-3-3---3-3-3-2-----------------------------------------|
g|--------------------------2-----------------------------------------|
d|------2---2-2-2-2---2-2-2-2-----------------------------------------|
a|------2---2-2-2-2---2-2-2-------------------------------------------|
e|-0(0)---------------------------------------------------------------|


E|--------------------------------------------------------------------|
B|-------16-14/16(16)--------17-16/17(17)-19-16(16)-------17(17)------|
G|-12-13---------------12h13------------------------12h13-------------|
D|--------------------------------------------------------------------|
A|--------------------------------------------------------------------|
E|--------------------------------------------------------------------|

E|--------------------------------------------------------------------|
B|-------16-14/16(16)---------17-16/17(17)-19/21-16(16)---------------|
G|-12-13----------------12h13-----------------------------------------|
D|--------------------------------------------------------------------|
A|--------------------------------------------------------------------|
E|--------------------------------------------------------------------|

E|--------------------------------------------------------------------|
B|-------17(17)-19p17p16h17(17)---------------------------------------|
G|-16/18--------------------------------------------------------------|
D|--------------------------------------------------------------------|
A|--------------------------------------------------------------------|
E|--------------------------------------------------------------------|

E|-------16/17(17)-16/17\16-14----------------------------------------|
B|-14/16-----------------------17\16(16)------------------------------|
G|--------------------------------------------------------------------|
D|--------------------------------------------------------------------|
A|--------------------------------------------------------------------|
E|--------------------------------------------------------------------|

E|-------16-16/17(17)-16/17\16-14------------------------|
B|-14/16--------------------------17\16(16)--------------|
G|-------------------------------------------------------|
D|-------------------------------------------------------|
A|-------------------------------------------------------|
E|-------------------------------------------------------|

E|-------16-16/17(17)-16/17\16-14-------------------------------------|
B|-14/16--------------------------17-14-16--14-12-12/14(14)-----------|
G|--------------------------------------------------------------------|
D|--------------------------------------------------------------------|
A|--------------------------------------------------------------------|
E|--------------------------------------------------------------------|

Solo part coming up  with help of  Acoustic

E|-----------------------------------------------|
B|-14-14-14-14-14-14-14-14----14-----14----------|
G|-------------------------16-----16-------------|
D|-----------------------------------------------|
A|-----------------------------------------------|
E|-----------------------------------------------|



e|---------------------------------------------------|
b|---------------------------------------------------|
g|---------------------------------------------------|
d|---------------------------------------------------|
a|-5--5--5--5--5--5--5--5--5--4---5--4---------------|
e|-3--3--3--3--3--3--3--3--3--2---3--2---------------|

Thatís all I got 
Enjoy
Related for Scattered Rain tab