Song name
# A B C D E F G H I J K L M N O P Q R S T U V W X Y Z

Weezer - Pink Triangle tab

Here is the new and improved Weezer - Pink Triangle tab because like Dope Nose, I almost lost my lunch when I was looking at it so I fixed this one up for both guitars. I tabed mostley every note because if your like me, you don't like counting and stuff so with this you can just fallow along. Around the end of the song there is some guitar that is played under the chords and I just couldent get them. So here it is and enjoy!


Guitar 1:

Eb :----------------|----------------|----------------|----------------|
Bb :0---1---3-----1-|0-------0-------|0---1---3-----1-|0-------0-------|
Gb :0---2---4-----2-|0---2---0-------|0---2---4-----2-|0---2---0-------|
Db :--0---2---4-0---|--0-0-0---0---0-|--0---2---4-0---|--0-0-0---0---0-|
Ab :----------------|------------2---|----------------|------------2---|
Eb :----------------|----------------|----------------|----------------|

Guitar 2:

Eb :----------------|----------------|----------------|----------------|
Bb :----------------|----------------|----------------|----------------|
Gb :----------------|----------------|----------------|----------------|
Db :----------------|----------------|----------------|----------------|
Ab :----------------|----------------|----------------|----------------|
Eb :----------------|----------------|----------------|----------------|

========================================================================

Guitar 1:

Eb :--------------------|------------------|------------------|
Bb :--0---1---3-------1-|-0-------0--------|-0---1---3------1-|
Gb :--0---2---4-------2-|-0---2---0--------|-0---2---4------2-|
Db :----0---2---4---0---|---0-0-0---0----0-|---0---2---4--0---|
Ab :--------------------|--------------2---|------------------|
Eb :--------------------|------------------|------------------|

Guitar 2:

Eb :/10-----------/12---|\7-----------/8---|\3-----------/5---|
Bb :--------------------|------------------|------------------|
Gb :--------------------|------------------|------------------|
Db :--------------------|------------------|------------------|
Ab :--------------------|------------------|------------------|
Eb :--------------------|------------------|------------------|

===============================================================

Guitar 1:

Eb :----------------|----------------|----------------|----------------|
Bb :0-------0-----*-|----------------|----------------|----------------|
Gb :0---2---0-----*-|----------------|----------------|----------------|
Db :--0-0-0---0---*-|----------------|----------------|----------------|
Ab :------------2-*-|----------------|----------------|----------------|
Eb :----------------|----------------|----------------|----------------|

Guitar 2:

Eb :----------------|----------------|----------------|----------------|
Bb :3---------------|----------------|----------------|----------------|
Gb :----------------|----------------|2-2-2-2-2-2-2-2-|7-7-7-7-7-7-7-7-|
Db :--------------2-|--2-2-2-2-2-2-2-|2-2-2-2-2-2-2-2-|7-7-7-7-7-7-7-7-|
Ab :--------------2-|--2-2-2-2-2-2-2-|0-0-0-0-0-0-0-0-|5-5-5-5-5-5-5-5-|
Eb :--------------0-|--0-0-0-0-0-0-0-|----------------|5-5-5-5-5-5-5-5-|

========================================================================

Guitar 1:

Eb :-----------------|----------------|----------------|----------------|
Bb :-----------------|----------------|----------------|----------------|
Gb :-----------------|----------------|----------------|----------------|
Db :5-5-5-5-5-5--5-5-|----------------|----------------|----------------|
Ab :5-5-5-5-5-5--5-5-|----------------|----------------|----------------|
Eb :3-3-3-3-2-2--2-2-|----------------|----------------|----------------|

Guitar 2: 

Eb :-----------------|----------------|----------------|----------------|
Bb :-----------------|----------------|----------------|----------------|
Gb :-----------------|----------------|2-2-2-2-2-2-2-2-|7-7-7-7-7-7-7-7-|
Db :-----------------|2-2-2-2-2-2-2-2-|2-2-2-2-2-2-2-2-|7-7-7-7-7-7-7-7-|
Ab :-----------------|2-2-2-2-2-2-2-2-|0-0-0-0-0-0-0-0-|5-5-5-5-5-5-5-5-|
Eb :-----------------|0-0-0-0-0-0-0-0-|----------------|5-5-5-5-5-5-5-5-|

=========================================================================

Guitar 1:

Eb :----------------|------------------|---------------------|
Bb :----------------|------------------|---------------------|
Gb :----------------|------------------|2--2--2--2--2-2-2--2-|
Db :5-5-5-5-5-5-5-5-|2-2-2--2--2-2-2-2-|2--2--2--2--2-2-2--2-|
Ab :5-5-5-5-5-5-5-5-|2-2-2--2--2-2-2-2-|0--0--0--0--0-0-0--0-|
Eb :3-3-3-3-2-2-2-2-|0-0-0--0--0-0-0-0-|---------------------|

Guitar 2:

Eb :--------------3-|--3-3-/5-/7-7---7-|--/8-\5-\3-/5-----\2-|
Bb :----------------|------------------|---------------------|
Gb :----------------|------------------|---------------------|
Db :----------------|------------------|---------------------|
Ab :----------------|------------------|---------------------|
Eb :----------------|------------------|---------------------|

==============================================================

Guitar 1:

Eb :----------------------|---------------------|----------------|
Bb :----------------------|---------------------|----------------|
Gb :7-7--7--7---7--7-7--7-|---------------------|----------------|
Db :7-7--7--7---7--7-7--7-|--5--5-5-5-5--5--5-5-|2-2-2-2-2-2-2-2-|
Ab :5-5--5--5---5--5-5--5-|--5--5-5-5-5--5--5-5-|2-2-2-2-2-2-2-2-|
Eb :5-5--5--5---5--5-5--5-|--3--3-3-3-2--2--2-2-|0-0-0-0-0-0-0-0-|

Guitar 2:

Eb :--2-/5-/7-/10-10---10-|/12-\7-------/8-\7---|*-------------8-|
Bb :----------------------|---------------------|----------------|
Gb :----------------------|---------------------|----------------|
Db :----------------------|---------------------|----------------|
Ab :----------------------|---------------------|----------------|
Eb :----------------------|---------------------|----------------|

==================================================================

Guitar 1:

Eb :----------------------|----------------|-----------------|
Bb :----------------------|----------------|-----------------|
Gb :2--2--2--2--2--2-2--2-|7-7-7-7-7-7-7-7-|---------4---4---|
Db :2--2--2--2--2--2-2--2-|7-7-7-7-7-7-7-7-|-5---5---4---4---|
Ab :0--0--0--0--0--0-0--0-|5-5-5-5-5-5-5-5-|-5---5---2---2---|
Eb :----------------------|5-5-5-5-5-5-5-5-|-3---3---2---2---|

Guitar 2:

Eb :--\7-\5-\3-/5-\3---\2-|--------------2-|/3---------------|
Bb :----------------------|----------------|-----------------|
Gb :----------------------|----------------|-----------------|
Db :----------------------|----------------|-----------------|
Ab :----------------------|----------------|-----------------|
Eb :----------------------|----------------|-----------------|

==============================================================

Guitar 1:

Eb :----------------|----------------|----------------|-----------------|
Bb :----------------|----------------|----------------|-----------------|
Gb :5---5-----------|5---5-----------|7---7---7-7-7---|9---9----4---4---|
Db :5---5---5---5---|5---5---5---5---|7---7---7-7-7---|9---9----4---4---|
Ab :3---3---5---5---|3---3---5---5---|5---5---5-5-5---|7---7----2---2---|
Eb :3---3---3---3---|3---3---3---3---|5---5---5-5-5---|7---7----2---2---|

Guitar 2:

Eb :*---------------|----------------|----------------|-----------------|
Bb :----------------|----------------|----------------|-----------------|
Gb :----------------|----------------|----------------|-----------------|
Db :----------------|----------------|----------------|-----------------|
Ab :----------------|----------------|----------------|-----------------|
Eb :----------------|----------------|----------------|-----------------|

=========================================================================

Guitar 1:

Eb :----------------|----------------|----------------|----------------|
Bb :----------------|----------------|----------------|----------------|
Gb :5---5-----------|5---5-----------|7---7---7-7-7---|5---4---2---2---|
Db :5---5---5---5---|5---5---5---5---|7---7---7-7-7---|5---4---2---2---|
Ab :3---3---5---5---|3---3---5---5---|5---5---5-5-5---|3---2---0---0---|
Eb :3---3---3---3---|3---3---3---3---|5---5---5-5-5---|----------------|

Guitar 2:

Eb :----------------|----------------|----------------|----------------|
Bb :----------------|----------------|----------------|----------------|
Gb :----------------|----------------|----------------|----------------|
Db :----------------|----------------|----------------|----------------|
Ab :----------------|----------------|----------------|----------------|
Eb :----------------|----------------|----------------|----------------|

========================================================================

Guitar 1:

Eb :----------------|----------------|----------------|----------------|
Bb :----------------|----------------|----------------|----------------|
Gb :7---7---9---9---|5---5-----------|5---5---7---7---|----------------|
Db :7---7---9---9---|5---5---5---5---|5---5---7---7---|5---5---5---5---|
Ab :5---5---7---7---|3---3---5---5---|3---3---5---5---|5---5---5---5---|
Eb :5---5---7---7---|3---3---3---3---|3---3---5---5---|3---3---3---3---|

Guitar 2:

Eb :----------------|----------------|----------------|----------------|
Bb :----------------|----------------|----------------|----------------|
Gb :----------------|----------------|----------------|----------------|
Db :----------------|----------------|----------------|----------------|
Ab :----------------|----------------|----------------|----------------|
Eb :----------------|----------------|----------------|----------------|

========================================================================

Guitar 1:

Eb :----------------|----------------|----------------|----------------|
Bb :0---1---3-----1-|0-------0-------|0---1---3-----1-|0-------0-------|
Gb :0---2---4-----2-|0---2---0-------|0---2---4-----2-|0---2---0-------|
Db :--0---2---4-0---|--0-0-0---0---0-|--0---2---4-0---|--0-0-0---0---0-|
Ab :----------------|------------2---|----------------|------------2---|
Eb :----------------|----------------|----------------|----------------|

Guitar 2:

Eb :----------------|----------------|----------------|----------------|
Bb :----------------|----------------|----------------|----------------|
Gb :----------------|----------------|----------------|----------------|
Db :5---------------|----------------|----------------|--------------2-|
Ab :5---------------|----------------|----------------|--------------2-|
Eb :3---------------|----------------|----------------|--------------0-|

========================================================================

Guitar 1:

Eb :----------------|----------------|----------------|-----------------|
Bb :----------------|----------------|----------------|-----------------|
Gb :----------------|----------------|----------------|-----------------|
Db :----------------|----------------|----------------|-----------------|
Ab :----------------|----------------|----------------|-----------------|
Eb :----------------|----------------|----------------|-----------------|

Guitar 2:

Eb :----------------|----------------|----------------|-----------------|
Bb :----------------|----------------|----------------|-----------------|
Gb :----------------|2-2-2-2-2-2-2-2-|7-7-7-7-7-7-7-7-|-----------------|
Db :--2-2-2-2-2-2-2-|2-2-2-2-2-2-2-2-|7-7-7-7-7-7-7-7-|5-5-5-5-5-5--5-5-|
Ab :--2-2-2-2-2-2-2-|0-0-0-0-0-0-0-0-|5-5-5-5-5-5-5-5-|5-5-5-5-5-5--5-5-|
Eb :--0-0-0-0-0-0-0-|----------------|5-5-5-5-5-5-5-5-|3-3-3-3-2-2--2-2-|

=========================================================================

Guitar 1:

Eb :----------------|----------------|----------------|----------------|
Bb :----------------|----------------|----------------|----------------|
Gb :----------------|----------------|----------------|----------------|
Db :----------------|----------------|----------------|----------------|
Ab :----------------|----------------|----------------|----------------|
Eb :----------------|----------------|----------------|----------------|

Guitar 2:

Eb :----------------|----------------|----------------|----------------|
Bb :----------------|----------------|----------------|----------------|
Gb :----------------|2-2-2-2-2-2-2-2-|7-7-7-7-7-7-7-7-|----------------|
Db :2-2-2-2-2-2-2-2-|2-2-2-2-2-2-2-2-|7-7-7-7-7-7-7-7-|5-5-5-5-5-5-5-5-|
Ab :2-2-2-2-2-2-2-2-|0-0-0-0-0-0-0-0-|5-5-5-5-5-5-5-5-|5-5-5-5-5-5-5-5-|
Eb :0-0-0-0-0-0-0-0-|----------------|5-5-5-5-5-5-5-5-|3-3-3-3-2-2-2-2-|

========================================================================

Guitar 1:

Eb :------------------|---------------------|----------------------|
Bb :------------------|---------------------|----------------------|
Gb :------------------|2--2--2--2--2-2-2--2-|7-7--7--7---7--7-7--7-|
Db :2-2-2--2--2-2-2-2-|2--2--2--2--2-2-2--2-|7-7--7--7---7--7-7--7-|
Ab :2-2-2--2--2-2-2-2-|0--0--0--0--0-0-0--0-|5-5--5--5---5--5-5--5-|
Eb :0-0-0--0--0-0-0-0-|---------------------|5-5--5--5---5--5-5--5-|

Guitar 2:

Eb :--3-3-/5-/7-7---7-|--/8-\5-\3-/5-----\2-|--2-/5-/7-/10-10---10-|
Bb :------------------|---------------------|----------------------|
Gb :------------------|---------------------|----------------------|
Db :------------------|---------------------|----------------------|
Ab :------------------|---------------------|----------------------|
Eb :------------------|---------------------|----------------------|

====================================================================

Guitar 1:

Eb :---------------------|----------------|----------------------|
Bb :---------------------|----------------|----------------------|
Gb :---------------------|----------------|2--2--2--2--2--2-2--2-|
Db :--5--5-5-5-5--5--5-5-|2-2-2-2-2-2-2-2-|2--2--2--2--2--2-2--2-|
Ab :--5--5-5-5-5--5--5-5-|2-2-2-2-2-2-2-2-|0--0--0--0--0--0-0--0-|
Eb :--3--3-3-3-2--2--2-2-|0-0-0-0-0-0-0-0-|----------------------|

Guitar 2:

Eb :/12-\7-------/8-\7---|*-------------8-|--\7-\5-\3-/5-\3---\2-|
Bb :---------------------|----------------|----------------------|
Gb :---------------------|----------------|----------------------|
Db :---------------------|----------------|----------------------|
Ab :---------------------|----------------|----------------------|
Eb :---------------------|----------------|----------------------|

==================================================================

Guitar 1:

Eb :--------------2-|/3---------------|*---------------|----------------|
Bb :----------------|-----------------|----------------|----------------|
Gb :----------------|-----------------|----------------|----------------|
Db :----------------|-----------------|----------------|----------------|
Ab :----------------|-----------------|----------------|----------------|
Eb :----------------|-----------------|----------------|----------------|

Guitar 2:

Eb :----------------|-----------------|----------------|----------------|
Bb :----------------|-----------------|----------------|----------------|
Gb :7-7-7-7-7-7-7-7-|---------4---4---|5---5-----------|5---5-----------|
Db :7-7-7-7-7-7-7-7-|-5---5---4---4---|5---5---5---5---|5---5---5---5---|
Ab :5-5-5-5-5-5-5-5-|-5---5---2---2---|3---3---5---5---|3---3---5---5---|
Eb :5-5-5-5-5-5-5-5-|-3---3---2---2---|3---3---3---3---|3---3---3---3---|

=========================================================================

Guitar 1:

Eb :----------------|-----------------|----------------|----------------|
Bb :----------------|-----------------|----------------|----------------|
Gb :7---7---7-7-7---|9---9----4---4---|5---5-----------|5---5-----------|
Db :7---7---7-7-7---|9---9----4---4---|5---5---5---5---|5---5---5---5---|
Ab :5---5---5-5-5---|7---7----2---2---|3---3---5---5---|3---3---5---5---|
Eb :5---5---5-5-5---|7---7----2---2---|3---3---3---3---|3---3---3---3---|

Guitar 2:

Eb :----------------|-----------------|----------------|----------------|
Bb :----------------|-----------------|----------------|----------------|
Gb :----------------|-----------------|----------------|----------------|
Db :----------------|-----------------|----------------|----------------|
Ab :----------------|-----------------|----------------|----------------|
Eb :----------------|-----------------|----------------|----------------|

=========================================================================

Guitar 1:

Eb :----------------|----------------|----------------|----------------|
Bb :----------------|----------------|----------------|----------------|
Gb :7---7---7-7-7---|5---4---2---2---|7---7---9---9---|5---5-----------|
Db :7---7---7-7-7---|5---4---2---2---|7---7---9---9---|5---5---5---5---|
Ab :5---5---5-5-5---|3---2---0---0---|5---5---7---7---|3---3---5---5---|
Eb :5---5---5-5-5---|----------------|5---5---7---7---|3---3---3---3---|

Guitar 2:

Eb :----------------|----------------|----------------|----------------|
Bb :----------------|----------------|----------------|----------------|
Gb :----------------|----------------|----------------|----------------|
Db :----------------|----------------|----------------|----------------|
Ab :----------------|----------------|----------------|----------------|
Eb :----------------|----------------|----------------|----------------|

========================================================================

Guitar 1:

Eb :----------------|-----------------|-----------------|
Bb :----------------|-----------------|-----------------|
Gb :5---5---7---7---|-----------------|-----------------|
Db :5---5---7---7---|5-5-5-5-5--5-5-5-|2----------------|
Ab :3---3---5---5---|5-5-5-5-5--5-5-5-|2----------------|
Eb :3---3---5---5---|3-3-3-3-3--3-3-3-|0----------------|

Guitar 2:

Eb :----------------|-----------------|-----------------|
Bb :----------------|-----------------|-----------------|
Gb :----------------|-----------------|-----------------|
Db :----------------|-----------------|---------7---9---|
Ab :----------------|-----------------|----10---*-------|
Eb :----------------|-----------------|-----------------|

=========================================================

Guitar 1:

Eb :------------------|-----------------|----------------|
Bb :------------------|-----------------|----------------|
Gb :------------------|-----------------|----------------|
Db :------------------|6---7------------|------------4---|
Ab :-----7---9---10---|*----------------|----5---7-------|
Eb :------------------|-----------------|----------------|

Guitar 2:

Eb :------------------|-----------------|----------------|
Bb :------------------|-----------------|----------------|
Gb :------------------|-----------------|----------------|
Db :9---10------------|----*--------7---|7---9-----------|
Ab :------------------|----9---10---*---|----------------|
Eb :------------------|-----------------|----------------|

==========================================================

Guitar 1:

Eb :-----------------|-----------------|-----------------|
Bb :-----------------|-----8---8---7---|*----------------|
Gb :-----------------|-----------------|-----------------|
Db :4----5-----------|-----------------|9---7---5----4---|
Ab :-----------------|-----------------|-----------------|
Eb :-----------------|-----------------|-----------------|


Guitar 2:

Eb :-----------------|-----------------|-----------------|
Bb :-----------------|-----------------|-----------------|
Gb :-----------------|-----------------|-----------------|
Db :-----*---7---9---|9---10-----------|*-----------12---|
Ab :----10---*-------|-----------------|-----------------|
Eb :-----------------|-----------------|-----------------|

==========================================================

Guitar 1:

Eb :----------------|-----------------|-----------------|
Bb :----------------|-----------------|-----------------|
Gb :----------------|-----------------|-----------------|
Db :4---2---4---5---|4----2-----------|-----2---4---5---|
Ab :----------------|-----------------|-----------------|
Eb :----------------|-----------------|-----------------|

Guitar 2:

Eb :----------------|-----------------|-----------------|
Bb :----------------|-----------------|-----------------|
Gb :----------------|-----------------|-----------------|
Db :9-----7-9-7-9-7-|9-7--*---7---9---|9---10-----------|
Ab :----------------|----10---*-------|-----------------|
Eb :----------------|-----------------|-----------------|

=========================================================

Guitar 1:

Eb :-----------------|--------------------|--------------------|
Bb :-----------------|--------------------|12--------12---12---|
Gb :-----------------|----------12---14---|--------------------|
Db :7----------------|--------------------|--------------------|
Ab :-----------------|--------------------|--------------------|
Eb :-----------------|--------------------|--------------------|

Guitar 2:

Eb :-----------------|--------------------|-----22---22---20---|
Bb :-----------------|--------------------|--------------------|
Gb :-----------------|--------------------|--------------------|
Db :----7---9---10---|10---12-------------|------*-------------|
Ab :-----------------|--------------------|--------------------|
Eb :-----------------|--------------------|--------------------|

================================================================

Guitar 1:

Eb :--------------------|--------------------|-----------------|
Bb :10---10----8----8---|-7----7----8----7---|-8---------------|
Gb :--------------------|--------------------|-------------4---|
Db :--------------------|--------------------|-----5-------4---|
Ab :--------------------|--------------------|-----5---2-2-2---|
Eb :--------------------|--------------------|-3-3-3-------2---|

Guitar 2:

Eb :20---19---19---17---|17---15---15---14---|15---*-----------|
Bb :--------------------|--------------------|-----------------|
Gb :--------------------|--------------------|-----------------|
Db :--------------------|--------------------|-----------------|
Ab :--------------------|--------------------|-----------------|
Eb :--------------------|--------------------|-----------------|

================================================================

Guitar 1:

Eb :----------------|----------------|--------------------------------|
Bb :----------------|----------------|--------------------------------|
Gb :----5-----------|----5-----------|--------7---------------7-------|
Db :----5-------5---|----5-------5---|--------7---------------7-------|
Ab :3-3-3-------5---|3-3-3-------5---|5---5---5-------5---5---5-------|
Eb :----3---3-3-3---|----3---3-3-3---|--------5---------------5-------|

Guitar 2:

Eb :----------------|----------------|--------------------------------|
Bb :----------------|----------------|--------------------------------|
Gb :----------------|----------------|--------------------------------|
Db :----------------|----------------|--------------------------------|
Ab :----------------|----------------|--------------------------------|
Eb :----------------|----------------|--------------------------------|

=======================================================================

Guitar 1:

Eb :----------------|----------------|----------------|----------------|
Bb :----------------|----------------|----------------|----------------|
Gb :----9-------4---|----5-----------|----5-----------|----7---7-7-7---|
Db :----9-------4---|----5-------5---|----5-------5---|----7---7-7-7---|
Ab :7-7-7---2-2-2---|3-3-3-------5---|3-3-3-------5---|5-5-5---5-5-5---|
Eb :----7-------2---|----3---3-3-3---|----3---3-3-3---|----5---5-5-5---|

Guitar 2:

Eb :----------------|----------------|----------------|----------------|
Bb :----------------|----------------|----------------|----------------|
Gb :----------------|----------------|----------------|----------------|
Db :----------------|----------------|----------------|----------------|
Ab :----------------|----------------|----------------|----------------|
Eb :----------------|----------------|----------------|----------------|

========================================================================

Guitar 1:

Eb :----------------|----------------|----------------|----------------|
Bb :----------------|----------------|----------------|----------------|
Gb :5---4---2---2---|7---7---9---9---|5---5-----------|5---5---7---7---|
Db :5---4---2---2---|7---7---9---9---|5---5---5---5---|5---5---7---7---|
Ab :3---2---0---0---|5---5---7---7---|3---3---5---5---|3---3---5---5---|
Eb :----------------|5---5---7---7---|3---3---3---3---|3---3---5---5---|

Guitar 2:

Eb :----------------|----------------|----------------|----------------|
Bb :----------------|----------------|----------------|----------------|
Gb :----------------|----------------|----------------|----------------|
Db :----------------|----------------|----------------|----------------|
Ab :----------------|----------------|----------------|----------------|
Eb :----------------|----------------|----------------|----------------|

========================================================================

Guitar 1:

Eb :----------------|----------------|----------------|----------------|
Bb :----------------|----------------|----------------|----------------|
Gb :--------4---4---|5---5-----------|5---5-----------|7---7---7-7-7---|
Db :5---5---4---4---|5---5---5---5---|5---5---5---5---|7---7---7-7-7---|
Ab :5---5---2---2---|3---3---5---5---|3---3---5---5---|5---5---5-5-5---|
Eb :3---3---2---2---|3---3---3---3---|3---3---3---3---|5---5---5-5-5---|

Guitar 2:

Eb :----------------|----------------|----------------|----------------|
Bb :----------------|----------------|----------------|----------------|
Gb :----------------|----------------|----------------|----------------|
Db :----------------|----------------|----------------|----------------|
Ab :----------------|----------------|----------------|----------------|
Eb :----------------|----------------|----------------|----------------|

========================================================================

Guitar 1:

Eb :-----------------|----------------|----------------|----------------|
Bb :-----------------|----------------|----------------|----------------|
Gb :-----------------|----------------|----------------|----------------|
Db :-----------------|----------------|----------------|----------------|
Ab :-----------------|----------------|----------------|----------------|
Eb :-----------------|----------------|----------------|----------------|

Guitar 2:

Eb :-----------------|----------------|----------------|----------------|
Bb :-----------------|----------------|----------------|----------------|
Gb :9---9----4---4---|5---5-----------|5---5-----------|7---7---7-7-7---|
Db :9---9----4---4---|5---5---5---5---|5---5---5---5---|7---7---7-7-7---|
Ab :7---7----2---2---|3---3---5---5---|3---3---5---5---|5---5---5-5-5---|
Eb :7---7----2---2---|3---3---3---3---|3---3---3---3---|5---5---5-5-5---|

=========================================================================

Guitar 1:

Eb :----------------|----------------|----------------|----------------|
Bb :----------------|----------------|----------------|----------------|
Gb :----------------|----------------|----------------|----------------|
Db :----------------|----------------|----------------|----------------|
Ab :----------------|----------------|----------------|----------------|
Eb :----------------|----------------|----------------|----------------|

Guitar 2:

Eb :----------------|----------------|----------------|----------------|
Bb :----------------|----------------|----------------|----------------|
Gb :5---4---2---2---|7---7---9---9---|5---5-----------|5---5---7---7---|
Db :5---4---2---2---|7---7---9---9---|5---5---5---5---|5---5---7---7---|
Ab :3---2---0---0---|5---5---7---7---|3---3---5---5---|3---3---5---5---|
Eb :----------------|5---5---7---7---|3---3---3---3---|3---3---5---5---|

========================================================================

Guitar 1:

Eb :----------------|----------------|----------------|----------------|
Bb :----------------|----------------|----------------|----------------|
Gb :----------------|----------------|----------------|----------------|
Db :----------------|----------------|----------------|----------------|
Ab :----------------|----------------|----------------|----------------|
Eb :----------------|----------------|----------------|----------------|

Guitar 2:

Eb :----------------|----------------|----------------|----------------|
Bb :----------------|----------------|----------------|----------------|
Gb :----------------|5---5---7---7---|----------------|5---5---7---7---|
Db :5-5-5-5-5-5-5-5-|5---5---7---7---|5-5-5-5-5-5-5-5-|5---5---7---7---|
Ab :5-5-5-5-5-5-5-5-|3---3---5---5---|5-5-5-5-5-5-5-5-|3---3---5---5---|
Eb :3-3-3-3-3-3-3-3-|3---3---5---5---|3-3-3-3-3-3-3-3-|3---3---5---5---|

========================================================================

Guitar 1:

Eb :----------------|----------------|----------------|----------------|
Bb :0---1---3-----1-|0-------0-------|0---1---3-----1-|0-------0-------|
Gb :0---2---4-----2-|0---2---0-------|0---2---4-----2-|0---2---0-------|
Db :--0---2---4-0---|--0-0-0---0---0-|--0---2---4-0---|--0-0-0---------|
Ab :----------------|------------2---|----------------|----------------|
Eb :----------------|----------------|----------------|----------------|

Guitar 2:

Eb :3---5---7-----5-|3---2---3-------|3---5---7-----5-|3---2---3-------|
Bb :--3---5---7-----|--3---3---3---3-|--3---5---7-----|--3---3---------|
Gb :4---5---7---7-5-|4---2---4---4---|4---5---7---7-5-|4---2---4-------|
Db :----------------|----------------|----------------|----------------|
Ab :----------------|----------------|----------------|----------------|
Eb :----------------|----------------|----------------|----------------|

Weezer Tab 2 and THERE ARE MORE TO COME!
Tap to rate this tab
# A B C D E F G H I J K L M N O P Q R S T U V W X Y Z