Arctic Monkeys - Dont Sit Down Cause Ive Moved Your Chair tab

Arctic Monkeys
Don't Sit Down Caus' I've Moved Your Chair

Drop D Tuning

  INTRO
E |-------------------------------|
B |-------------------------------|
G |--7-7-9-7-7-9-7-7-9-7-10-9-8-7-|
D |-------------------------------|
A |-------------------------------|
D |-------------------------------|

  VERSE/MAIN RIFF
E |--------------------------------------------|
B |--------------------------------------------|
G |--------------------------------------------|
D |--------------------------------------------|
A |--5--5--7--5--5--7--5--5--7--5--8--7--6--5--|
D |--0--0--0--0--0--0--0--0--0--0--0--0--0--0--|

  CHORUS
    A                        G
E |---------------------------------------------------|
B |---------------------------------------------------|
G |---------------------------------------------------|
D |--14-14-14-14-14-14-14-14--12-12-12-12-12-12-12-12-|
A |--12-12-12-12-12-12-12-12--10-10-10-10-10-10-10-10-|
D |--0--0--0--0--0--0--0--0---0--0--0--0--0--0--0--0--|

    D
  --------------------------------------------------|
  --------------------------------------------------|
  --------------------------------------------------|
  --7--7--7--7--7--7--7--7--7--7--7--7--7--7--7--7--|
  --5--5--5--5--5--5--5--5--5--5--5--5--5--5--5--5--|
  --0--0--0--0--0--0--0--0--0--0--0--0--0--0--0--0--|

  OUTRO BIT
E |----------------------------------------------------------|
B |----------------------------------------------------------|
G |----------------------------------------------------------|
D |--/7--/9--/7--/9--/7--/9--/7--/9--/7--/9--/7--/9--/7--/9--|
A |----------------------------------------------------------|
D |----------------------------------------------------------|

  END
Tap to rate this tab
 
# A B C D E F G H I J K L M N O P Q R S T U V W X Y Z