Arctic Monkeys - Dont Sit Down Cause Ive Moved Your Chair tab

Im not claiming this to be 100% right but there was nothing up here yet so i thought id 
give it a lash.Solo is a bit messy but otherwise i think its ok. If you have any 
corrections by all means stick it in the comments. Thanks

Intro
e|------------------------------------------------------------------|
B|------------------------------------------------------------------|
G|------------------------------------------------------------------|
D|-0-0-2-0---0-2-0---0-2-0-3-2-0------x10---------------------------|
A|------------------------------------------------------------------|
D|------------------------------------------------------------------|


Verse
Guitar 1 repeat intro

Guitar 2
e|------------------------------------------------------------------|
B|------------------------------------------------------------------|
G|------------------------------------------------------------------|
D|------------------------------------------------------------------|
A|------------------------------------------------------------------|
D|-0-0-2-0---0-2-0---0-2-0-3-2-0------------------------------------|


Chorus
Guitar 1
e|------------------------------------------------------------------|
B|------------------------------------------------------------------|
G|-10----12-----7---------------------------------------------------|
D|-10x5--12x5---7x10------------------------------------------------|
A|-8-----10-----5---------------------------------------------------|
D|------------------------------------------------------------------|

Guitar 2 - When guitar 1 starts playing 577
e|------------------------------------------------------------------|
B|------------------------------------------------------------------|
G|------------------------------------------------------------------|
D|---------------0-0-2-0---0-2-0---0-2-0-3-2-0----------------------|
A|------------------------------------------------------------------|
D|------------------------------------------------------------------|

Verse 2
Just bass

Chorus


Solo
e|------------------------------------------------------------------|
B|------------------------------------------------------------------|
G|------------------------------------------------14-12-------------|
D|-7/15-15-15-15----15-15-15-15---15~----15-12-15-------15-12-------|
A|---------------12-------------12----------------------------------|
D|------------------------------------------------------------------|

2:40 - 2:43 ?????????

e|------------------------------------------------------------------|
B|------------------------------------------------------------------|
G|------------------14^---------------------------------------------|
D|-12-15-x4------12-15-x4-------------------------------------------|
A|------------------------------------------------------------------|
D|------------------------------------------------------------------|




/ - slide up
~ - vibrato
^ - bend up
Tap to rate this tab
 
# A B C D E F G H I J K L M N O P Q R S T U V W X Y Z