Song name
# A B C D E F G H I J K L M N O P Q R S T U V W X Y Z

Arctic Monkeys - Dont Sit Down Cause Ive Moved Your Chair tab

Arctic Monkeys - Don't Sit Down 'Cause I've Moved Your Chair

Tabbed By Richard
----------------------------------------------------------------------------

  Intro                         Riff 1         
e:-----------------------------|------------------------------|     
b:-----------------------------|------------------------------|     
g:-----2------2------2---2-2-2-|------2------2------2---2-2-2-|        
D:-0-0-2-0--0-2-0--0-2-0-3-2-1-|-0--0-2-0--0-2-0--0-2-0-3-2-1-|  X8
A:-----------------------------|------------------------------|         
D:-----------------------------|------------------------------| 

  Riff 2                        Riff 3
e:--------------------------|  |------------------------------|
b:--------------------------|  |------------------------------|
g:------2------2------2---2-|  |------------------------------|
D:-0--0-2-0--0-2-0--0-2-0-3-|  |-0--0-2-0--0-2-0--0-2-0-3-2-1-|  X11
A:--------------------------|  |-0--0-2-0--0-2-0--0-2-0-3-2-1-|
D:--------------------------|  |-0--0-2-0--0-2-0--0-2-0-3-2-1-|
                                   (with riff 1 X11 played 
                                       simultaneously).

  Riff 4                        Riff 5
e:--------------------------|  |----------------------------------|
b:--------------------------|  |----------------------------------|     
g:--------------------------|  |-2--2-2--2-2-2-2--7--7-7--7-7-7-7-|  
D:-0--0-2-0--0-2-0--0-2-0-3-|  |-3--3-3--3-3-3-3--8--8-8--8-8-8-8-|
A:-0--0-2-0--0-2-0--0-2-0-3-|  |-3--3-3--3-3-3-3--8--8-8--8-8-8-8-|  
D:-0--0-2-0--0-2-0--0-2-0-3-|  |-3--3-3--3-3-3-3--8--8-8--8-8-8-8-|  
   (with riff 2 played          (Alex's guitar maybe in E standard
     simultaneously).            so he could be playing F and A#
                                 chords on E,A,D,g strings, while
                                 Jamie plays the above without the
                                 '2' and '7' on the g string).


  Riff 6 (Guitar 1)             Riff 6 (Guitar 2)
e:---------------------------| |---------------------------|     
b:---------------------------| |---------------------------|      
g:---------------------------| |-----2-------2-------2---2-|   
D:-0-0-2-0-0-0-2-0-0-0-2-0-3-| |-0-0-2-0-0-0-2-0-0-0-2-0-3-|  
A:-0-0-2-0-0-0-2-0-0-0-2-0-3-| |---------------------------|      
E:-0-0-2-0-0-0-2-0-0-0-2-0-3-| |---------------------------|    


  - Riff 5

  - Riff 6


e:------------------------------------------------------------------------|
b:------------------------------------------------------------------------|
g:-/10^------------------------------------------------7------------------|
D:------------<12>------------<12>--12-----------7-----7-------7^(r)7^(r)-|
A:-----------------------------------------------x-----5------------------|
D:-----------------------------------------------0------------------------|
  

  - Riff 5

  - Riff 6 

  - Riff 5 

  - Riff 6 (Solo begins)

  - Riff 5

  - Riff 6

  - Riff 5


  Riff 7 (Guitar 1)
e:----------------------------------------------------------|
b:----------------------------------------------------------|
g:----------------------------------------------------------|
D:-0--0-2-0--0-2-0--0-2-0--0-2-0--0-2-0--0-2-0--0-2-0-3-2-1-|  X2
A:-0--0-2-0--0-2-0--0-2-0--0-2-0--0-2-0--0-2-0--0-2-0-3-2-1-|
D:-0--0-2-0--0-2-0--0-2-0--0-2-0--0-2-0--0-2-0--0-2-0-3-2-1-|


  Riff 7 (Guitar 2)
e:----------------------------------------------------------|
b:----------------------------------------------------------|
g:------2------2------2------2------2------2------2---2-2-2-|
D:-0--0-2-0--0-2-0--0-2-0--0-2-0--0-2-0--0-2-0--0-2-0-3-2-1-|  X2
A:----------------------------------------------------------|
D:----------------------------------------------------------|


  Solo (02:28-03:04)
e:-----------------------------------------------------------------|
b:-----------------------------------------------------------------|
g:-2---2--2-2-2/10-10-10/-2-2/10-10-10--10-10/-2-2/10-10--10-10/-2-|
D:-----------------------------------------------------------------|
A:-----------------------------------------------------------------|
D:-----------------------------------------------------------------|

e:-----------------------------------------------------------------|
b:--------------------------------------------1-3/5/3-1-3-3p1---1/-|
g:-/12-12p10-/12-12p10-12/10-12/14-12/10--2-2-----------------2----|
D:-----------------------------------------------------------------|
A:-----------------------------------------------------------------|
D:-----------------------------------------------------------------|

e:----------------------------------------------------------------|
b:-13^------------------------------------------------------------|
g:-------/7--/10--/7--/10--/7--/10--/7--10/--/7--/13--/7--/13--/7-|
D:----------------------------------------------------------------|
A:----------------------------------------------------------------|
D:----------------------------------------------------------------|

e:--------------|
b:--------------|
g:-/13--/7--/13-|
D:--------------|
A:--------------|
D:--------------|


   Lyrics:

Break a mirror roll the dice, 
  Run with scissors through a chip pan fire fight.
Go into business with a grizzly bear, 
  But just don't sit down 'cause I've moved your chair.

Find a well known hardman and start a fight, 
  Wear your shell suit on bonfire night.
Fitting a circular hole with a peg that's square, 
  But just don't sit down 'cause I've moved your chair.

  Ohhhh yeah yeah yeah

Bite the lightning and tell me how it tastes, 
  Kung fu fighting on your roller skates, 
Do the macerana in the devils lair
  But just don't sit down 'cause I've moved your chair.

  Ohhhh yeah yeah yeah
Tap to rate this tab
 
# A B C D E F G H I J K L M N O P Q R S T U V W X Y Z