Song name
# A B C D E F G H I J K L M N O P Q R S T U V W X Y Z

Black Keys - Sinister Kid tab

-----------------------------------------------------------------------------
			    Sinister Kid - The Black Keys
-----------------------------------------------------------------------------
Tabbed by:In-Flight-Radio
Email:qwerty12204@yahoo.com

Tuning: Standard

  [With Slide]
e|-------17-17-17-17--15/17--15----------------------------------------------|
B|-/17---------------------------17/15---------------------------------------|
G|--------------------------------------17--------14~--/13-/13-/13-----------|
D|--------------------------------------------/14-------------------/14~-----|
A|---------------------------------------------------------------------------|
E|---------------------------------------------------------------------------|

e|-----------------------------------17----17----17----17--17/20--17---------|
B|-------------------------------/17----17----17----17-----------------------|
G|--12-----12/14-------------------------------------------------------------|
D|------14-------------------------------------------------------------------|
A|---------------------------------------------------------------------------|
E|---------------------------------------------------------------------------|

e|---------------------------------------------------------------------------|
B|--17-17-/17-15-13----------------------------------------------------------|
G|------------------12----12/14----------------------------------------------|
D|---------------------14----------------------------------------------------|
A|---------------------------------------------------------------------------|
E|---------------------------------------------------------------------------|

      [with fingers]
e|---------------------------------------------------------------------------|
B|--------------------8----8h10-8-----8-8--8/10-10-10-/10--------------------|
G|---5-7b-7-5-7---7/9------9----9--/9------9/11-11-11-/9---------------------|
D|-7-------------------------------------------------------------------------|
A|---------------------------------------------------------------------------|
E|---------------------------------------------------------------------------|

e|---------------------------------------------------------------------------|
B|----5-7b-7-5-8-------------------------------------------------------------|
G|--7------------7b-7-5-7-5-7-------5----------------------------------------|
D|----------------------------7-5-7---7-5------------------------------------|
A|----------------------------------------7-5-3-5-7-3------------------------|
E|----------------------------------------------------5----------------------|


************************************

| /   slide up
| \   slide down
| h   hammer-on
| p   pull-off
| ~   vibrato
| +   harmonic
| x   Mute note
| b   Bend
| pb  Pre-bend
| br  Bend release
| pbr Pre-bend release
| brb Bend release bend

************************************
Tap to rate this tab
 
# A B C D E F G H I J K L M N O P Q R S T U V W X Y Z