Song name
# A B C D E F G H I J K L M N O P Q R S T U V W X Y Z

Blacklisted - Ivory Tower tab

/ - slide
h - hammer on
p - pull off

Full Step Down
Intro x1
D|-----10--|
A|---9-----|
F|-7-------|
C|---------|
G|---------|
D|---------|

Intro Con't x4 (repeat the end an additional time)
D|--------------------------------------------|----|
A|--------------------------------------------|----|
F|----------------------------7-7-7-7---------|----|
C|-3-3-3-3--2-2-2-2--5-5-5-5--7-7-7-7--8-7/8--|-2--|
G|-3-3-3-3--2-2-2-2--5-5-5-5--5-5-5-5--8-7/8--|-2--|
D|-1-1-1-1--0-0-0-0--3-3-3-3-----------6-5/6--|-0--|


Verse x1
D|---------------------------------------------------------------------------|
A|---------------------------------------------------------------------------|
F|-------------------7-7-7-7--10-10-10-10---------------------7-7-7-7--3--5--|
C|-2-2-2-2--5-5-5-5--7-7-7-7--10-10-10-10---2-2-2-2--5-5-5-5--7-7-7-7--3--5--|
G|-2-2-2-2--5-5-5-5--5-5-5-5--8--8--8--8----2-2-2-2--5-5-5-5--5-5-5-5--1--3--|
D|-0-0-0-0--3-3-3-3-------------------------0-0-0-0--3-3-3-3-----------------|

D|-------------------------------------------------------------------------|
A|-------------------------------------------------------------------------|
F|------------------7-7-7-7--10-10-10-10--------------------7-7-7-7--3--5--|
C|-2-2-2-2-2-2-2-2--7-7-7-7--10-10-10-10---2-2-2-2-2-2-2-2--7-7-7-7--3--5--|
G|-2-2-2-2-2-2-2-2--5-5-5-5--8--8--8--8----2-2-2-2-2-2-2-2--5-5-5-5--1--3--|
D|-0-0-0-0-0-0-0-0-------------------------0-0-0-0-0-0-0-0-----------------|


Chorus x3
D|-----------------------------|
A|-----------------------------|
F|--------------3p2------------|
C|-2-2-2-2-2-2--3p2--3p2--3/5--|
G|-2-2-2-2-2-2--1p0--3p2--3/5--|
D|-0-0-0-0-0-0-------1p0--1/3--|
     . . . . . 

Fill x1
D|------------------------------|
A|------------------------------|
F|----------------9-9----10-10--|
C|-2-2-2-2-2-2----9-9----10-10--|
G|-2-2-2-2-2-2----7-7----8--8---|
D|-0-0-0-0-0-0--0------0--------|
     . . . . . 

Breakdown x6
D|-----------------------|----|
A|-----------------------|----|
F|--------3p2---------3--|----|
C|-2-2-2--3p2--5p2--3-3--|-2--|
G|-2-2-2--1p0--5p2--3-1--|-2--|
D|-0-0-0-------3p0--1----|-0--|
     . .  
Tap to rate this tab
# A B C D E F G H I J K L M N O P Q R S T U V W X Y Z