Song name
# A B C D E F G H I J K L M N O P Q R S T U V W X Y Z

Cramps - Bikini Girls With Machine Guns tab

Here is my attempt tab at a cramp song

e|--------------------------------------------------|
B|----10~-------if you have a wammy bar-------------|
G|-----9~----------use it for this part-------------| play this
D|-----7~-------------------------------------------| and let ring
A|--------------------------------------------------| about 8x
E|--------------------------------------------------| 


e|---5-5-5-5---5-5-5-5---5-5-5-5---7-7-7-7---------------|
B|---7-7-7-7---5-5-5-5---7-7-7-7---9-9-9-9---------------|
G|---7-7-7-7---6-6-6-6---7-7-7-7---9-9-9-9---------------|
D|---7-7-7-7---7-7-7-7---7-7-7-7---9-9-9-9---------------|
A|---5-5-5-5---7-7-7-7---5-5-5-5---7-7-7-7---------------|
E|-------------5-5-5-5-----------------------------------|

pretty much you repeat the above twice then it goes onto the solo

e|-5h0-a few times--10h0-0-9h0-0-8h0-0-7h0-0-do this part twice-|
B|---i think she occasionally plays this string open------------|
G|--------------------------------------------------------------| 
D|--------------------------------------------------------------|
A|--------------------------------------------------------------|
E|--------------------------------------------------------------|

e|-5h0-a few times--12h0-0-11h0-0-10h0-0-9h0---|
B|---------------------------------------------|
G|---------------------------------------------| 
D|---------------------------------------------|
A|---------------------------------------------|
E|---------------------------------------------|


e|--10h0-0-9h0-0-8h0-0-7h0-0-------------------|
B|---------------------------------------------|
G|---------------------------------------------| 
D|---------------------------------------------|
A|---------------------------------------------|
E|---------------------------------------------|


e|-5h0-5h0-0-4h0-0-3h0-0-2h0-0-0-1-1-3-3-------------------|
B|---------------------------0-0-1-1-3-3----10-------------| let the last
G|-------------------------------------------9-------------| note ring out
D|-------------------------------------------7-------------|  7x
A|---------------------------------------------------------|
E|---------------------------------------------------------|
    
e|---5-5-5-5---5-5-5-5---5-5-5-5---7-7-7-7---------------|
B|---7-7-7-7---5-5-5-5---7-7-7-7---9-9-9-9---------------|
G|---7-7-7-7---6-6-6-6---7-7-7-7---9-9-9-9---------------|
D|---7-7-7-7---7-7-7-7---7-7-7-7---9-9-9-9---------------|
A|---5-5-5-5---7-7-7-7---5-5-5-5---7-7-7-7---------------|
E|-------------5-5-5-5-----------------------------------|


e|---5-5-5-5---5-5-5-5---5-5-5-5---5-5-5-5---5-5-5-5---7-7-7-7----|
B|---7-7-7-7---5-5-5-5---7-7-7-7---5-5-5-5---7-7-7-7---9-9-9-9----|
G|---7-7-7-7---6-6-6-6---7-7-7-7---6-6-6-6---7-7-7-7---9-9-9-9----|
D|---7-7-7-7---7-7-7-7---7-7-7-7---7-7-7-7---7-7-7-7---9-9-9-9----|
A|---5-5-5-5---7-7-7-7---5-5-5-5---7-7-7-7---5-5-5-5---7-7-7-7----|
E|-------------5-5-5-5-------------5-5-5-5------------------------|

e|-5h0-a few times------------------5~----------| if you have a wammy bar
B|----------------------------------0~----------| you can use it on this last
G|----------------------------------------------| note
D|----------------------------------------------|
A|----------------------------------------------|
E|----------------------------------------------|
                                                 
Tap to rate this tab
 
# A B C D E F G H I J K L M N O P Q R S T U V W X Y Z