Song name
# A B C D E F G H I J K L M N O P Q R S T U V W X Y Z

Cross Stitched Eyes - Rot tab

"ROT" by Cross Stitched Eyes

Standard Tuning.
Tabbed by Jake Strange.
Contact me at http://myspace.com/grarge

Main riff:
(guitar 1)
e|---------------------------------------------|
B|---------------------------------------------|
G|---------------------------------------------|
D|----2---------------------2-------==---------|
A|------3--2-3-2-3-2----------3--2-3-2--3/5-5--|
E|--0----------------3----0--------------------|
 | (guitar 2)                                  |
e|---------------------------------------------|
B|---------------------------------------------|
G|---------------------------------------------|
D|----4-5------4-5-4--------4-5---------5/7-7--|
A|--2-2-3------2-3-2------2-2-3---------3/5-5--|
E|--0----------------3----0--------------------|

Pre-chorus:
e|----------------------------------------------------------|
B|----------------------------------------------------------|
G|-----5--------------------------5-------------9-10--9-----|
D|--2--5--6---8-7--------------2--5--6----9-10----------10--|
A|--2--3--6-------8-7----------2--3--6----------7--8--7-----|
E|--0-----4-----------8-7-8----0-----4----7--8--------------|

Guitar 1 plays low notes in last part.
Guitar 2 plays the octave higher parts.

Chorus:
e|----------------------------------|------------------|
B|----------------------------------|------------------|
G|----------------------------------|--5-5-5--4/5-4----|
D|--2-2-4-5-4-x-4-5-4----2-2-4-5-4--|--3-3-3--2/3-2----|
A|--0-0-2-3-2-x-2-3-2-5--0-0-2-3-2--|---------------3--|
E|--------------------3-------------|------------------|
                                    |                  |
                                   e|------------------|
                                   B|------------------|
                        (guitar 2) G|--5-5-5-----------|
                                   D|--3-3-3--2h3-2----|
                                   A|---------------3--|
                                   E|------------------|

Main Solo:
e|-------------------------------------|
B|--3-5-5--3-5-5--3-5--5-5-5-5-3-3-3---|
G|-------------------------------------|
D|-------------------------------------|
A|-------------------------------------|
E|-------------------------------------|

e|-------------------------------------|
B|--3-5-5--3-5-5--3-5-5-5-5------------|
G|--------------------------4-5-4-4----|
D|-------------------------------------|
A|-------------------------------------|
E|-------------------------------------|

e|-------------------------------------|
B|--3-5-5--3-5-5-5--/7-7-7-7-7--/3-3-3-|
G|-------------------------------------|
D|-------------------------------------|
A|-------------------------------------|
E|-------------------------------------|

e|------------------------------------|
B|--3-5-5--3-5-5-5-/10-10-10-10--/12--|
G|------------------------------------|
D|------------------------------------|
A|------------------------------------|
E|------------------------------------|

Solo under 2nd verse:
e|---------------------------------------------------------------------|
B|--8-8-7-7----------------------7--8-8-10-10--------------12-12-10-10-|
G|----------9-9-9--9-7-9-7-9-7-9--------------9-9-9--7-9-7-------------|
D|---------------------------------------------------------------------|
A|---------------------------------------------------------------------|
E|---------------------------------------------------------------------|

e|------------------------------------------------------------|
B|--8-8-7-7----------------------7--8-8-10-10-----------------|
G|----------9-9-9--9-7-9-7-9-7-9--------------9-9-9-7-9-7-7---|
D|------------------------------------------------------------|
A|------------------------------------------------------------|
E|------------------------------------------------------------|

www.myspace.com/crossstitchedeyes
Tap to rate this tab
 
# A B C D E F G H I J K L M N O P Q R S T U V W X Y Z