Song name
# A B C D E F G H I J K L M N O P Q R S T U V W X Y Z

Cross Stitched Eyes - Eyes tab

EYES by Cross Stitched Eyes
Tabbed by Jake Strange.
myspace.com/grarge


e|-------------------|
B|-------------------|
G|--6-----5-6-----5--|
D|----7-5-----7-5----|
A|-------------------|
E|-------------------|

e|-------------------|
B|-------------------|
G|------7----6-------|
D|--5---7----6---7---|
A|--5---5----4---7---|
E|--3------------5---|

That's all there is to it!
Tap to rate this tab
# A B C D E F G H I J K L M N O P Q R S T U V W X Y Z