Song name
# A B C D E F G H I J K L M N O P Q R S T U V W X Y Z

Cross Stitched Eyes - Shell tab

SHELL by Cross Stitched Eyes
Tabbed by Jake Strange.
myspace.com/grarge

e|-----------------------------|-----------------------|
B|-----------------------------|-----------------------|
G|---------------9-7-5-5-4-----|-----------------5-4---|
D|--5--7-7-5-7-7-9-7-5-5-4-5---|-3-5-5-3-x-3-5-5-5-4-5-|
A|--5--7-7-5-7-7-7-5-3-3-2-5---|-3-5-5-3-x-3-5-5-3-2-5-|
E|--3--5-5-3-5-5-----------3-0-|-1-3-3-1-x-1-3-3-----3-|


e|------------------------------|---------------------------------------|
B|------------------------------|---------------------------------------|
G|------------------------------|--------------------------------77777--|
D|----5-----5--------4---5-4----|----2-----2--------4---5-4------77777--|
A|--7---7-7---7----5---5-----5--|--3---3-3---3----5---5-----5----55555--|
E|------------------------------|---------------------------------------|

Listen to the song for how many times & when to play everything.

Tap to rate this tab
# A B C D E F G H I J K L M N O P Q R S T U V W X Y Z