Guitaretab - guitar tabs
Song name
# A B C D E F G H I J K L M N O P Q R S T U V W X Y Z

Def Leppard - Two Steps Behind tab

-------------------------------------------------------------------------------
			     Two Steps Behind - Def Leppard
-------------------------------------------------------------------------------
Tabbed by: Jennifer 
Email: jenn18115@yahoo.com

Two Steps Behind Solo
I've seen a lot of people make an attempt at this solo but they all seem to be off badly
or just slightly. This is 100% the way to play it and the most simple. Email me if you
need to! Compliments or suggestions are welcome! :)

Tuning: Standard
[ Tab from: http://www.guitaretab.com/d/def-leppard/5004.html ]
e|--------------------------------------10/12-12-12-12\10-10-10-9--9--9----|
B|-2/5-55-5555\3-33-33-----------------12/14-14-14-14\12-12-12-10-10-10---|
G|---------------------2h4-44-4-2-44/6------------------------------------|
D|-------------------------------------------------------------------------|
A|-------------------------------------------------------------------------|
E|-------------------------------------------------------------------------|

e|-9--9---9h10-10-10-10--7-7-7-7--5-5--------------------------------------|
B|-10-10--1010-10-10-10--8-8-8-8--7-7----17--17--17--17-17-17-17-17--------|
G|---------------------------------------16b-16b-16b-14-14-14-14-14--------|
D|-------------------------------------------------------------------------|
A|-------------------------------------------------------------------------|
E|-------------------------------------------------------------------------|

e|-----------------------------------------------------5---------5-7-5-7/9-|
B|-------------3/5-5-5-5\3-3-3-3-3-3-33--3/5-5-5-7-5-7---5-7-5-7-----------|
G|-------------4/6-6-6-6\4-4-4-2-2-2-22------------------------------------|
D|-------------------------------------------------------------------------|
A|---------2-0-------------------------------------------------------------|
E|-0-0-2/4-----------------------------------------------------------------|


Let me know what you think!
Related for Two Steps Behind tab