Song name
# A B C D E F G H I J K L M N O P Q R S T U V W X Y Z

Slash - Gotten tab

Slash
Gotten (feat. Adam Levine)

a note in parentheses means to let ring the whole measure
except for the (2)-let ring for half the measure.

intro/verse 1
play 3x
e|------------------------------|------------------------------|
B|------5---4h5---7-5---4h5---5-|------5---4h5---7-5---4h5---5-|
G|--------4-----4-----4---------|--------4-----4-----4---------|
D|--------------------------6---|--------------------------6---|
A|-4(4)-------------------------|-0(0)-------------------------|
E|------------------------------|------------------------------|
                                 1st, 2nd ending
e|------------------------------|[------------0-----------------------]
B|------5---4h5---7-5---4h5---5-|[--------4-------4---------4-7p5-----]
G|--------4-----4-----4---------|[------4---4---4---4-----5-------4---]
D|--------------------------6---|[----------------------6-----------6-]
A|------------------------------|[-2(2)---------------3---------------]
E|-0(0)-------------------------|[------------------------------------]

3rd ending
E[------------0---------------0-------]
B[--------4-------4---------0---------]
G[------4---4---4---4-----6-----6-----]
D[----------------------7---------7---]
A[-2(2)---------------0-------------7-]
E[------------------------------------]

prechorus 1
E|-----------------------------|------------0----------------0-------|
B|-------5-----5h7-----7-5-----|--------4-------4----------0---------|
G|---------4---------4-------4-|------4---4---4---4------6-----6-----|
D|---4h6-----6-----6-------6---|-----------------------7---------7---|
A|-----------------------------|-2(2)----------------0-------------7-|
E|-0---------------------------|-------------------------------------|

E|-------------------------------------0-------0-------|
B|-------0-----5-0-----------------0h2---2-------2-----|
G|---6-----6-------6-----------2-----------2-------2---|
D|-----6-----6-------6/4---4-----2-----------2-------2-|
A|-4---------------------2---0-------------------------|
E|-----------------------------------------------------|

chorus
e|---7-4-5---|
B|-9-7-5-5-5-|
G|-9-8-6-6-5-|
D|-9-9-6-7-7-|
A|-7-9-4-7-7-|
E|---7---5---|

mini-solo 1/verse 2
play 3x
e|------------------------------|------------------------------|
B|------5---4h5---7-5---4h5---5-|------5---4h5---7-5---4h5---5-|
G|--------4-----4-----4---------|--------4-----4-----4---------|
D|--------------------------6---|--------------------------6---|
A|-4(4)-------------------------|-0(0)-------------------------|
E|------------------------------|------------------------------|
                                 1st, 2nd ending
e|------------------------------|[-----------0-----------------------]
B|------5---4h5---7-5---4h5---5-|[-------4-------4---------4-7p5-----]
G|--------4-----4-----4---------|[-----4---4---4---4-----5-------4---]
D|--------------------------6---|[---------------------6-----------6-]
A|------------------------------|[-2(2)--------------3---------------]
E|-0(0)-------------------------|[-----------------------------------]

3rd ending
E[------------0---------------0-------]
B[--------4-------4---------0---------]
G[------4---4---4---4-----6-----6-----]
D[----------------------7---------7---]
A[-2(2)---------------0-------------7-]
E[------------------------------------]

prechorus 2
E|-------------------------|-----------0---------------0-------|
B|-------------5-----5-----|-------4-------4---------0---------|
G|-------4-------4-----4---|-----4---4---4---4-----6-----6-----|
D|---4h6---6-------6-----6-|---------------------7---------7---|
A|-----------7-------------|-2(2)--------------0-------------7-|
E|-0-----------------------|-----------------------------------|

E|-------------------------------------0-------0-------|
B|-------0-----5-0-----------------0h2---2-------2-----|
G|---6-----6-------6-----------2-----------2-------2---|
D|-----6-----6-------6/4---4-----2-----------2-------2-|
A|-4---------------------2---0-------------------------|
E|-----------------------------------------------------|

chorus
e|---7-4-5---|
B|-9-7-5-5-5-|
G|-9-8-6-6-5-|
D|-9-9-6-7-7-|
A|-7-9-4-7-7-|
E|---7---5---|

bridge/mini-solo 2 ?

verse 3
play 1x
e|------------------------------|------------------------------|
B|------5---4h5---7-5---4h5---5-|------5---4h5---7-5---4h5---5-|
G|--------4-----4-----4---------|--------4-----4-----4---------|
D|--------------------------6---|--------------------------6---|
A|-4(4)-------------------------|-0(0)-------------------------|
E|------------------------------|------------------------------|
                                 
e|------------------------------|------------0---------------0-------|
B|------5---4h5---7-5---4h5---5-|--------4-------4---------0---------|
G|--------4-----4-----4---------|------4---4---4---4-----6-----6-----|
D|--------------------------6---|----------------------7---------7---|
A|------------------------------|-2(2)---------------0-------------7-|
E|-0(0)-------------------------|------------------------------------|

chorus
e|---7-4-5---|
B|-9-7-5-5-5-|
G|-9-8-6-6-5-|
D|-9-9-6-7-7-|
A|-7-9-4-7-7-|
E|---7-x-5---|
Tap to rate this tab
 
# A B C D E F G H I J K L M N O P Q R S T U V W X Y Z