Stone Gods - Start Of Something tab

Song: Start Of Something
Artist: Stone Gods
Album: Silver Spoons and Broken Bones
Tuning: Dropped D tuning DADGBe
tabbed by mister_@hotmail.it

Intro

Rhythm Guitar (distorted)
   P.M.------------------------------------------------------------------|
e|-------------------|-----------------|------------------|---------------|
B|-------------------|-----------------|------------------|---------------|
G|-------------------|-----------------|---------2-2-2-2-2|-2-2-2-2-2-2-2-|
D|---------4-4-4-4-4-|-4-4-4-4-4-4-4-4-|--2-2-2--0-0-0-0-0|-0-0-0-0-0-0-0-|
A|--5-5-5--2-2-2-2-2-|-2-2-2-2-2-2-2-2-|--0-0-0-----------|---------------|
D|--5-5-5------------|-----------------|------------------|---------------|

Lead Guitar (slightly distorted)

e|-------------7-5---|-----------------|------------7-5---|----7-5--------|
B|-----------------5-|-------3---------|------------------|-5-------------|
G|-------------------|-----------------|----------------7-|---------------|
D|-------------------|-----------------|------------------|---------------|
A|-------------------|-----------------|------------------|---------------|
D|-------------------|-----------------|------------------|---------------|

Do this all twice

Verse
The verse is basically the Rhythm part of the intro.
Do it four times to play all the first verse
at the third and at the fourth time lead guitar plays this riff over it

Lead Guitar(Clean)

let ring-------------------------------------------|
e|-------------------|-----------------|-0---0-----------|----------------|
B|---------3---0-----|-----------------|----3---3--------|----------------|
G|-------------------|-----------------|-----------------|----------------|
D|-------------------|-----------------|-----------------|----------------|
A|--5p0--------------|-----------------|-----------------|----------------|
D|-------------------|-----------------|-----------------|----------------|

this is the verse

the we've got the

Pre-Chorus

Rhythm Guitar

e|-------------------|-----------------|------------------|
B|-------------------|-----------------|------------------|
G|--4-----2--2-------|-----------------|--2-2-2-2-2-2-2-2-|
D|--4-----2--2--5----|-5---0--0--0-----|--2-2-2-2-2-2-2-2-|
A|--2---2-0--0--5----|-5---0--0--0-----|--0-0-0-0-0-0-0-0-|
D|--------------5----|-5-5-0--0--0-----|------------------|


Lead Guitar

e|-------------------|-----------------|------------------|
B|-------------------|-----------------|-2-2-2-2-2-2-5p3h5|
G|--4-----2--2-------|-----------------|-2-2-2-2-2-2------|
D|--4-----2--2--5----|-5---0--0--0-----|------------------|
A|--2---2-0--0--5----|-5---0--0--0-----|------------------|
D|--------------5----|-5-5-0--0--0-----|------------------|


Chorus

Rhythm Guitar

Here you can play 2/4 Chords or strum (D Ud Ud Udu)them if you prefer
e|-------------------|-----------------|
B|-----3-------------|-----------------|
G|-----2-----4-------|----------2------|
D|-----0-----4-------|----5-----2------| x3
A|-----------2-------|----5-----0------|
D|-------------------|----5------------|

and then

e|-------------------|-----------------|
B|-----3-------------|-----------------|
G|-----2-----------2-|-----------------|
D|-----0-----5-----2-|-----------------| 
A|-----------5-----0-|-----------------|
D|-----------5-------|-----------------|

Lead Guitar

e|--5---5---5---5---|
B|----3---3---3---3-|
G|------------------|
D|------------------| x6
A|------------------|
D|------------------|

and then

e|-------------------|-----------------|
B|-----3-------------|-----------------|
G|-----2-----------2-|-----------------|
D|-----0-----5-----2-|-----------------| 
A|-----------5-----0-|-----------------|
D|-----------5-------|-----------------|

Break (2:05)

Both Guitars               P.M.--|
e|-------------------|-----------------|--------------|--------------|
B|-------------------|-----------------|--------------|--------------|
G|-------------------|-----------------|--------------|--------------|
D|-----2-----4-------|---5---------5---|---5-----7----|------9-------|
A|-----2-----4-------|---5---------5---|---5-----7----|------9-------|
D|-----2-----4-------|---5--5-5-5--5---|---5-----7----|------9-------|

for the solo just play the rhythm part of the chorus

the order is

Intro
Verse
Pre-Chorus
Chorus
Intro
Verse
Pre-Chorus
Chorus
Break
Pre-Chorus
Solo(Chorus)
Chorus
Out Chorus

Enjoy!
Tap to rate this tab
 
# A B C D E F G H I J K L M N O P Q R S T U V W X Y Z