Song name
# A B C D E F G H I J K L M N O P Q R S T U V W X Y Z

Stone Gods - Im With The Band tab

Song: I'm with the Band
Artist: Stone Gods
Album: Silver Spoons and Broken Bones
Tuning: Standard tuning EADGBe
tabbed by mister_@hotmail.it

Intro

e|-------------------|----------------|----------------|------------------|
B|-------5-----------|----------------|--------6-------|------------------|
G|-------5-----------|----------------|--------5-------|------------------|
D|-------5-----------|----------------|--------5-------|------------------|
A|-------------------|----------------|----------------|------------------|  x7
E|-------------------|----------------|----------------|------------------|
-
Riff

Rhythm Guitar
e|-------------------|-------------------|---------------------|---------------------|
B|-------------------|--------------4--3-|---------------------|------------4--3-----|
G|----5--5-5-3--5--5-|----5--5-5-3-------|-----5--5-5-3--5--5--|--5--5-5-3-----------|
D|-------------------|-------------------|---------------------|---------------------|
A|-------------------|-------------------|---------------------|---------------------| x2
E|-------------------|-------------------|---------------------|---------------------|

At the second time the Lead Guitar harmonizes this bit with 

e|-------------------|-------------------|---------------------|---------------------|
B|----8--8-8-6--8--8-|----8--8-8-6--9--11|-----8--8-8-6--8--8--|--8--8-8-6---4---3---|
G|-------------------|-------------------|---------------------|---------------------|
D|-------------------|-------------------|---------------------|---------------------|
A|-------------------|-------------------|---------------------|---------------------|  
E|-------------------|-------------------|---------------------|---------------------|

Verse
e|----------------------------|--------------------------|
B|----------------------------|--------------------------|
G|----------------------------|--------------------------|
D|----------------------------|---------------------8----|
A|--8---10----8---10---10-----|--8--10----8--10-----6----|  x4
E|--6b--8---6-6b--8--6--8-----|--6b--8--6-6b--8--6-------|

Pre-Chorus

e|------------------|-------------------|-----------------|--------------------|
B|------------------|-------------------|-----------------|--------------------|
G|----10----10------|-------------------|--10----10-------|--------------3-3---|
D|----10----10------|------------1--0---|--10----10-------|-----------1--1-1---|
A|----8--8--8-------|--0--1--3----------|--8--8--8--------|--0--1--3-----------|
E|------------------|-------------------|-----------------|--------------------|

Chorus

e|----------------------|-------------------------|
B|----------------------|-------------------------|
G|----3-3--3-3--3-------|---8-8--8-8--------------|
D|----3-3--3-3--3---3---|---8-8--8-8--------------|
A|----1-1--1-1--1---3---|---6-6--6-6---3--1b------| x3
E|------------------1---|---------------------3---|


then 
e|----------------------|-----------------|
B|----------------------|-----------------|
G|----3-3--3-3--3-------|-----------------|
D|----3-3--3-3--3---3---|------3----------|
A|----1-1--1-1--1---3---|------3----------|
E|------------------1---|------1----------|

then apart frome those parts, there is a little break which I'm not sure of 
so it's better if I don't put it
and the solo, in which (I think) the rhythm part is the chorus

the order:

Intro
Riff
Verse
Pre-Chorus
Chorus
Rif
Verse
Pre-Chorus
Chorus
Break
Solo(chorus)
Chorus
Outro(Riff)
Tap to rate this tab
 
# A B C D E F G H I J K L M N O P Q R S T U V W X Y Z