Song name
# A B C D E F G H I J K L M N O P Q R S T U V W X Y Z

Systematic - Beginning Of The End tab

Author/Artist: Systematic
Title: Beginning of the End
Album: Somewhere In Between
Transcribed by: Rob K
Tuning : Standard C Tuning

Intro (Riff 1) 
c |-----------------|
G |-----------------|
Eb|---------------x-|
Bb|-4-4-4-4-7-4-x-x-|
F |-x-x-x-x-x-x-x---|
C |-2-2-2-2-5-2-----|

Intro Part 2 (Riff 2)
c--|-----------------------------------------|
G--|-----------------------------------------|
Eb-|.---------------x------------------------|
Bb-|.-4-4-4-4-7-4-x-x--------4-4-5-5-7-7-7-7-|
F--|--x-x-x-x-x-x-x----------x-x-x-x-x-x-x-x-|
C--|--2-2-2-2-5-2------------2-2-3-3-5-5-5-5-|

First Verse (Riff 3) 
c |-----------------------|
G |-----------------------|
Eb|-----------------------|slight pm
Bb|-----------------------|
F |-4--2--5--4--2--5--4---|
C |-2--0--3--2--0--3--2---|
    ...................

Pre-chorus
   gtr1
c |-----------------------|
G |-----------------------|
Eb|-----------------------|pick stacato
Bb|-----------------------|
F |-4--2--5--4--2--5--4---|
C |-2--0--3--2--0--3--2---|
  |gtr2
c |-----------------------|
G |-----------------------|
Eb|-x-x-x-x-x-x-x-x-x-x-x-|
Bb|-x-x-x-x-x-x-x-x-x-x-x-|
F |-----------------------|
C |-----------------------|


right before chorus
C |-------|
G |-------|
Eb|--8b---|
Bb|-------|
F |-------|
C |-------|

Chorus
gtr1  (... mean play the same chord over and over)  timing is probably off
C |-------------------------------------------------------------------------------------------------------------------|
G |-------------------------------------------------------------------------------------------------------------------|
Eb|--------------------------------------7----------------------------------------------------------------------------|
Bb|--4-----------------------------------7-------------------------------------------------7--------7-----------------|
F |--4-----------------------------------5----------------------------------------7-7-------------------7-------------|
C |--2................................---5...................................-----0-0--0-0-----0--------0............-|
  |
C |--0--0--0--0--0--0--0--0--0--0--0--0---0--0--0--0--0--0--0--0--0--0--0--0--0--0--0--0--0--0--0--0--0--0--0--0------|
G |-12-12-12-12-10-10-10-10--9--9--9--9--12-12-12-12-10-10-10-10--9--9--9--9--9--9--9--9--9--9--9--9--9--9--9--9------|
Eb|-------------------------------------------------------------------------------------------------------------------|
Bb|-------------------------------------------------------------------------------------------------------------------|
F |-------------------------------------------------------------------------------------------------------------------|
C |-------------------------------------------------------------------------------------------------------------------|

pick slide into next verse, no palm muting tho
play pre chorus, chorus

@2:07 this is played
C |------------|
G |------------|
Eb|------------|
Bb|-9-9-9-9-7--|
F |-9-9-9-9-7--|
C |-7-7-7-7-5--|  then back into chorus again, with a slide at the end


Bridge (listen for timing)
C |--------------------------------------------------|
G |--------------------------------------------------|
Eb|--------------------------------------------------|
Bb|-9-----------------------11--12-------------7--5--|
F |-9-----------------------11--12-------------7--5--|
C |-7....................----9--10.........----5--3--|

play intro
at the very end of the intro play
C |------------------------|
G |------------------------|
Eb|11----------------------|
Bb|11-11-------------------|
F |-9-11-------------------|
C |----9-\ slide down------|


Solo   still NEEDS WORK
C |---------------------------------------------------------------------|
G |-----------------------------14----12----10----9---7---6-------------|
Eb|-13~------11-14-13~----11-14----14----13----11---9---8---6--6--------|
Bb|-------------------------------------------------------------7--7/9--|
F |---------------------------------------------------------------------|
C |---------------------------------------------------------------------|

C |------------------------------------16----16----16-----16---16b-|
G |---14-----12------10-----9-----/19~----19----19----19-------19b-|
Eb|-----14------13-----11-----9------------------------------------|
Bb|----------------------------------------------------------------|
F |----------------------------------------------------------------|
C |----------------------------------------------------------------|

Play Chorus

Outro
              3x 
c |-----------------|----------------------------|
G |-----------------|----------------------------|
Eb|-----------------|----------------------------| whole thing 2x
Bb|-4-4-4-4-7-4-x-x-|--4-4-4-7-7-7-7-7-9-9-9-9-9-|
F |-x-x-x-x-x-x-x-x-|--x-x-x-5-5-5-5-5-7-7-7-7-7-|
C |-2-2-2-2-5-2-----|--2-2-2-5-5-5-5-5-7-7-7-7-7-|
                                                        end of this
C |------------------------------------------------------|----|
G |------------------------------------------------------|----|
Eb|------------------------------------------------------|----|
Bb|-7-7-7-7-7-7-7-7-7-7-7-7-7-9-9-9-9-9-9-9-9-9-9-9-9----|-11-|
F |-5-5-5-5-5-5-5-5-5-5-5-5-5-7-7-7-7-7-7-7-7-7-7-7-7----|--9-|
C |-5-5-5-5-5-5-5-5-5-5-5-5-5-7-7-7-7-7-7-7-7-7-7-7-7----|--9-|
Tap to rate this tab
# A B C D E F G H I J K L M N O P Q R S T U V W X Y Z