Song name
# A B C D E F G H I J K L M N O P Q R S T U V W X Y Z

Systematic - Breakable tab

-------------------------------------------------------------------------------
			     Breakable - Systematic
-------------------------------------------------------------------------------
Tabbed by: Edd_sk8
Email: ed_sk8_87@hotmail.com

Itīs my first tab, I hope you enjoy it!!!!  Any comments, please e-mail me!!

Tuning:     e B G D A E

Intro
e|------------------------------------------------------|
B|------------------------------------------------------|
G|------------------------------------------------------|
D|------------------------------------------------------|
A|------------------------------------------------------|
E|-xxxx1--xxxxx--xxxx1--xxxx1--xx1--xxxxx--xxxx1--xxxx1-|

e|----------------------------------------------------|
B|----------------------------------------------------|
G|----------------------------------------------------|
D|----------------------------------------------------|
A|----------------------------------------------------|
E|-xx1--xxxxx--xxxx1--xxxx1--xx1--xxxxx--xxxx1--xxxx1-|

e|----------------------------------------------------|
B|----------------------------------------------------|
G|----------------------------------------------------|
D|----------------------------------------------------|
A|----------------------------------------------------|
E|-xx1--xxxxx--xxxx1--xxxx1--xx1--xxxxx--xxxx1--xxxx1-|

1st Verse
e|------------------------------------------------------|
B|------------------------------------------------------|
G|------------------------------------------------------|  Play this twice
D|------------------------------------------------------|
A|------------------------------------------------------|
E|-xxxx1--xxxxx--xxxx1--xxxx1--xx1--xxxxx--xxxx1--xxxx1-|

1st Chorus
e|------------------------------------------------------------------------|
B|------------------------------------------------------------------------|
G|-8\1010-8\1010-8\10---10\1212-10\1212-10\12---12\1313-12\1313-12\13-----|
D|------------------------------------------------------------------------|
A|-6\8 8--6\8 8--6\8-----8\1010--8\1010--8\10---10\1111-10\1111-10\11-----|
E|------------------------------------------------------------------------|

e -------------------------|
B -------------------------|
G -8\1010--8\1010--8\10----|
D -------------------------|
A -6\8 8---6\8 8---6\8-----|
E -------------------------|

e|---------------------------------------------------------------------------------|
B|---------------------------------------------------------------------------------|
G|-8\1010-8\1010-8\10---10\1212-10\1212-10\12---12\1313-12\1313-12\13--------------|
D|---------------------------------------------------------------------------------|
A|-6\8 8--6\8 8--6\8-----8\1010--8\1010--8\10---10\1111-10\1111-10\11---0--0--0--0-|
E|----------------------------------------------------------------------0--0--0--0-|
								Palm Mute..*..*..*..*

2nd Verse
e|------------------------------------------------------|
B|------------------------------------------------------|
G|------------------------------------------------------|  Play this three times
D|------------------------------------------------------|
A|------------------------------------------------------|
E|-xxxx1--xxxxx--xxxx1--xxxx1--xx1--xxxxx--xxxx1--xxxx1-|

2nd Chorus
e|------------------------------------------------------------------------|
B|------------------------------------------------------------------------|
G|-8\1010-8\1010-8\10---10\1212-10\1212-10\12---12\1313-12\1313-12\13-----|
D|------------------------------------------------------------------------|
A|-6\8 8--6\8 8--6\8-----8\1010--8\1010--8\10---10\1111-10\1111-10\11-----|
E|------------------------------------------------------------------------|

e -------------------------|
B -------------------------|
G -8\1010--8\1010--8\10----|
D -------------------------|
A -6\8 8---6\8 8---6\8-----|
E -------------------------|

e|------------------------------------------------------------------------|
B|------------------------------------------------------------------------|
G|-8\1010-8\1010-8\10---10\1212-10\1212-10\12---12\1313-12\1313-12\13-----|
D|------------------------------------------------------------------------|
A|-6\8 8--6\8 8--6\8-----8\1010--8\1010--8\10---10\1111-10\1111-10\11-----|
E|------------------------------------------------------------------------|

e -------------------------|
B -------------------------|
G -8\1010--8\1010--8\10----|
D -------------------------|
A -6\8 8---6\8 8---6\8-----|
E -------------------------|

e|------------------------------------------------------------------------|
B|------------------------------------------------------------------------|
G|-8\1010-8\1010-8\10---10\1212-10\1212-10\12---12\1313-12\1313-12\13-----|
D|------------------------------------------------------------------------|
A|-6\8 8--6\8 8--6\8-----8\1010--8\1010--8\10---10\1111-10\1111-10\11-----|
E|------------------------------------------------------------------------|

e -------------------------|
B -------------------------|
G -8\1010--8\1010--8\10----|
D -------------------------|
A -6\8 8---6\8 8---6\8-----|
E -------------------------|

e|---------------------------------------------------------------------------------|
B|---------------------------------------------------------------------------------|
G|-8\1010-8\1010-8\10---10\1212-10\1212-10\12---12\1313-12\1313-12\13--------------|
D|---------------------------------------------------------------------------------|
A|-6\8 8--6\8 8--6\8-----8\1010--8\1010--8\10---10\1111-10\1111-10\11---0--0--0--0-|
E|----------------------------------------------------------------------0--0--0--0-|
								Palm Mute..*..*..*..*

Bridge
e|-------------------------------------------------------------------|
B|-------------------------------------------------------------------|
G|-------------------------------------------------------------------|
D|-------------------------------------------------------------------|
A|-------------------------------------------------------------------|
E|-x x x x x x x x x x x x x x x x x x x x - 1 1 1 1 1 1 1 1 1 1 1 1-|
     * Start pressing slowly your finger on 1st fret

e|-------------------------------------------|
B|-------------------------------------------|
G|---------------8~~~~--7~~~~--8~~~~--7~~~~--|  Play this twice
D|-3~~~~--3~~~~--8~~~~--7~~~~----------------|
A|-3~~~~--3~~~~--6~~~~--5~~~~--6~~~~--5~~~~--|
E|-1~~~~--3~~~~--6~~~~--5~~~~----------------|

After Bridge
e|----------------------------------------------------------------------|
B|----------------------------------------------------------------------|
G|-8\10-10101010---10\12-12121212---12\13-13131313---8\1010-8\1010-8\10-|
D|----------------------------------------------------------------------|
A|-6\8--8 8 8 8----8 \10-10101010---10\12-12121212---6\8 8--6\8 8--6\8--|
E|----------------------------------------------------------------------|

3rd Chorus
e|------------------------------------------------------------------------|
B|------------------------------------------------------------------------|
G|-8\1010-8\1010-8\10---10\1212-10\1212-10\12---12\1313-12\1313-12\13-----|
D|------------------------------------------------------------------------|
A|-6\8 8--6\8 8--6\8-----8\1010--8\1010--8\10---10\1111-10\1111-10\11-----|
E|------------------------------------------------------------------------|

e -------------------------|
B -------------------------|
G -8\1010--8\1010--8\10----|
D -------------------------|
A -6\8 8---6\8 8---6\8-----|
E -------------------------|

e|---------------------------------------------------------------------------------|
B|---------------------------------------------------------------------------------|
G|-8\1010-8\1010-8\10---10\1212-10\1212-10\12---12\1313-12\1313-12\13--------------|
D|---------------------------------------------------------------------------------|
A|-6\8 8--6\8 8--6\8-----8\1010--8\1010--8\10---10\1111-10\1111-10\11---0--0--0--0-|
E|----------------------------------------------------------------------0--0--0--0-|
								Palm Mute..*..*..*..*

Outro
e|------------------------------------------------------|
B|------------------------------------------------------|
G|------------------------------------------------------|
D|------------------------------------------------------|
A|------------------------------------------------------|
E|-xxxx1--xxxxx--xxxx1--xxxx1--xx1--xxxxx--xxxx1--xxxx1-|


| /  slide up
| \  slide down
| h  hammer-on
| p  pull-off
| ~  vibrato
| +  harmonic
| x  Mute note
===============================================================================
Tap to rate this tab
 
# A B C D E F G H I J K L M N O P Q R S T U V W X Y Z