Song name
# A B C D E F G H I J K L M N O P Q R S T U V W X Y Z

Three Days Grace - Give In To Me tab

-----------------------------------------------------------------------------
                   Three Days Grace - Give In To Me
-----------------------------------------------------------------------------

Tabbed by: Metalrock4ever

Tuning: CGCFAD

D|------------------------------------------------------------|
A|------------------------------------------------------------|
F|------------------------------------------------------------|
C|---4-6-7-6-4-----4-7----6-7~----4-6-7-6-4-----4-7----6-7h6~-|
G|-4-----------4-5-----7~-------4-----------4-5-----7~--------|
C|------------------------------------------------------------|


Here's the part for the Verse as well (as a little extra).
D|------------------------------------------------------------|
A|------------------------------------------------------------|
F|------------------------------------------------------------|
C|---4-6-7-6-4-----4-7----6-7~----4-6-7-6-4-----4-7----6-7h6~-|  
G|-4-----------4-5-----7~-------4-----------4-5-----7~--------|
C|------------------------------------------------------------|

D|-------------------------------|
A|-------------------------------|
F|-------------------------------|
C|---4-6-7-6-4-----4-7----6-7h6~-|  
G|-4-----------4-5-----7~--------|
C|-------------------------------|

D|-------------------------2--------------------------------|
A|---------7-----------2-------2-----------7----------------|
F|-----6-------6-----------------------6-------6------------|
C|---4---------------4---4---4---4---4---------------6-7h6~-|
G|-4-----4---4---4-2---------------4-----4---4---4-7--------|
C|----------------------------------------------------------|

************************************

| /   slide up
| \   slide down
| h   hammer-on
| ~   vibrato
| +   harmonic
| x   Mute note
| b   Bend

************************************

If you have any comments/corrections, please say in either the comments box 
or leave me a message. Good luck and enjoy!
Tap to rate this tab
 
# A B C D E F G H I J K L M N O P Q R S T U V W X Y Z