Song name
# A B C D E F G H I J K L M N O P Q R S T U V W X Y Z

Weezer - If Youre Wondering If I Want You To I Want You To tab

Song:       (If You're Wondering If I Want You To) I Want You To
Artist:     Weezer
Tabbed By:  Dominic (Nargacuga667 @ Gmail)
		---This is my first tab, so please correct me!

		---I've found out that finger muting works best for this (raising string off fret 
before every major space)
		---Move chords around as needed

NOTE:
	This is written out to 2 guitars, one occasionally re-appearing. If intro chords are 
too hard for one player, consider the bottom string Lead and the top string Rhythm.


---------------------------------------------------------------------------|
-Intro:--------------------------------------------------------------------|
---------------------------------------------------------------------------|

(Clean Electric, or Acoustic) (Harder than it Looks)

e||--------------------------------------|
B||--------------------------------------|
G||--------------------------------------|  2 Times
D||--7---7---7-4-2-7---7--7---7-4-2-4----|
A||--5---5---5-2-0-5---5--5---5-2-0-2----|
E||--------------------------------------|


---------------------------------------------------------------------------|
-Verse 1:------------------------------------------------------------------|
---------------------------------------------------------------------------|


"The Moon Was Shining, On The Lake At Night..."

e||--------------------------------------|
B||--------------------------------------|
G||--------------------------------------|  2 Times
D||--7---7---7-4-2-7---7--7---7-4-2-4----|
A||--5---5---5-2-0-5---5--5---5-2-0-2----|
E||--------------------------------------|

e||--------------------------------------|
B||--------------------------------------|
G||--------------------------------------|  2 Times
D||--------------------------------------|
A||--9---9---9-7-5-9---9--9---9-7-5-7----|
E||--7---7---7-5-3-7---7--7---7-5-3-5----|

e||--------------------------------------|
B||--------------------------------------|
G||--------------------------------------|
D||--------------------------------------|
A||--5---5---5-5-3-5---5--5---5-5-5-7----|
E||--3---3---3-3-1-3---3--3---3-3-3-5----|

e||--------------------------------------|
B||--------------------------------------|
G||----------(Ten)-----------------------|
D||--------------------------------------|
A||--8---8---810-8-7---7--7---7-7-7-7----|
E||--6---6---6-8-6-5---5--5---5-5-5-5----|

e||--------------------------------------|
B||--------------------------------------|
G||--------------------------------------|  2 Times
D||--7---7---7-4-2-7---7--7---7-4-2-4----|
A||--5---5---5-2-0-5---5--5---5-2-0-2----|
E||--------------------------------------|

"You Told Me Stories, About Your Chickadee's"



(ACOUSTIC REPEATS VERSE)

In comes Driven Guitar (To the Best of My Ability)

e||--------------------------------------|
B||--------------------------------------|
G||--------------------------------------|
D||-12-12~---12-12~---12-12~---12-12~----|
A||-10-10~---10-10~---10-10~---10-10~----|
E||--------------------------------------|

e||--------------------------------------|
B||--------------------------------------|
G||--------------------------------------|
D||--9--9~----9--9~----9--9~----9--9~----|
A||--7--7~----7--7~----7--7~----7--7~----|
E||--------------------------------------|

e||--------------------------------------|
B||--------------------------------------|
G||--------------------------------------|
D||--5--5~----5--5~----8--8~----7--7~----|
A||--3--3~----3--3~----6--6~----5--5~----|
E||--------------------------------------|

e||--------------------------------------|
B||--------------------------------------|
G||--------------------------------------|
D||-12-12~---12-12~---12-12~---12-12~----|
A||-10-10~---10-10~---10-10~---10-10~----|
E||--------------------------------------|


---------------------------------------------------------------------------|
-Chorus:-------------------------------------------------------------------|
---------------------------------------------------------------------------|


(After Drum/Vocal Break)

"GIRL!"

(Verse's Driven Guitar Repeats)

(With Overdrive)
e||--------------------------------------|
B||--------------------------------------|
G||--------------------------------------|  2 Times
D||--7---7---7-7-7-7---7--7---7-7-7-7----|
A||--5---5---5-5-5-5---5--5---5-5-5-5----|
E||--------------------------------------|

e||--------------------------------------|
B||--------------------------------------|
G||--------------------------------------|  2 Times
D||--------------------------------------|
A||--9---9---9-9-9-9---9--9---9-9-9-9----|
E||--7---7---7-7-7-7---7--7---7-7-7-7----|

e||--------------------------------------|
B||--------------------------------------|
G||--------------------------------------|
D||--------------------------------------|
A||--5---5---5-5-5-5---5--5---5-5-5-5----|
E||--3---3---3-3-3-3---3--3---3-3-3-3----|

e||--------------------------------------|
B||--------------------------------------|
G||--------------------------------------|
D||--------------------------------------|
A||--8---8---8-8-8-8---8--8---8-8-8-8----|
E||--6---6---6-6-6-6---6--6---6-6-6-6----|

e||--------------------------------------|
B||--------------------------------------|
G||--------------------------------------|  2 Times
D||--7---7---7-7-7-7---7--7---7-7-7-7----|
A||--5---5---5-5-5-5---5--5---5-5-5-5----|
E||--------------------------------------|


---------------------------------------------------------------------------|
-Verse 2:------------------------------------------------------------------|
---------------------------------------------------------------------------|


"The Rest Of The Summer Was The Best We Ever Had"

e||--------------------------------------|
B||--------------------------------------|
G||--------------------------------------|  2 Times
D||--7---7---7-4-2-7---7--7---7-4-2-4----|
A||--5---5---5-2-0-5---5--5---5-2-0-2----|
E||--------------------------------------|

e||--------------------------------------|
B||--------------------------------------|
G||--------------------------------------|  2 Times
D||--------------------------------------|
A||--9---9---9-7-5-9---9--9---9-7-5-7----|
E||--7---7---7-5-3-7---7--7---7-5-3-5----|

e||--------------------------------------|
B||--------------------------------------|
G||--------------------------------------|
D||--------------------------------------|
A||--5---5---5-5-3-5---5--5---5-5-5-7----|
E||--3---3---3-3-1-3---3--3---3-3-3-5----|

e||--------------------------------------|
B||--------------------------------------|
G||----------(Ten)-----------------------|
D||--------------------------------------|
A||--8---8---810-8-7---7--7---7-7-7-7----|
E||--6---6---6-8-6-5---5--5---5-5-5-5----|

e||--------------------------------------|
B||--------------------------------------|
G||--------------------------------------|
D||--7---7---7-4-2-7---7--7---7-4-2-4----|
A||--5---5---5-2-0-5---5--5---5-2-0-2----|
E||--------------------------------------|

e||--------------------------------------|
B||--------------------------------------|
G||--------------------------------------| (With Tuba Sounding This Out Mostly)
D||--7---7--7---7--7---7--7---7-7-7-7-7--|
A||--5---5--5---5--5---5--5---5-5-5-5-5--|
E||--------------------------------------|

"Your Mom Cooked Meatloaf Even Though I Don't Eat Meat"

!!!(Repeat Verse ONE Acoustic)

(Include:)
e||--------------------------------------|
B||--------------------------------------|
G||--------------------------------------|
D||-12-12~---12-12~---12-12~---12-12~----|
A||-10-10~---10-10~---10-10~---10-10~----|
E||--------------------------------------|

e||--------------------------------------|
B||--------------------------------------|
G||--------------------------------------|
D||--9--9~----9--9~----9--9~----9--9~----|
A||--7--7~----7--7~----7--7~----7--7~----|
E||--------------------------------------|

e||--------------------------------------|
B||--------------------------------------|
G||--------------------------------------|
D||--5--5~----5--5~----8--8~----7--7~----|
A||--3--3~----3--3~----6--6~----5--5~----|
E||--------------------------------------|

e||--------------------------------------|
B||--------------------------------------|
G||--------------------------------------|
D||-12-12~---12-12~---12-12~---12-12~----|
A||-10-10~---10-10~---10-10~---10-10~----|
E||--------------------------------------|


----------|
-Chorus:--|  !!!EXTENDED CHORUS
----------|


(After Drum/Vocal Break)

"GIRL!"

(Verse's Driven Guitar Repeats)

(With Overdrive)
e||--------------------------------------|
B||--------------------------------------|
G||--------------------------------------|  2 Times
D||--7---7---7-7-7-7---7--7---7-7-7-7----|
A||--5---5---5-5-5-5---5--5---5-5-5-5----|
E||--------------------------------------|

e||--------------------------------------|
B||--------------------------------------|
G||--------------------------------------|  2 Times
D||--------------------------------------|
A||--9---9---9-9-9-9---9--9---9-9-9-9----|
E||--7---7---7-7-7-7---7--7---7-7-7-7----|

e||--------------------------------------|
B||--------------------------------------|
G||--------------------------------------|
D||--------------------------------------|
A||--5---5---5-5-5-5---5--5---5-5-5-5----|
E||--3---3---3-3-3-3---3--3---3-3-3-3----|

e||--------------------------------------|
B||--------------------------------------|
G||--------------------------------------|
D||--------------------------------------|
A||--8---8---8-8-8-8---8--8---8-8-8-8----|
E||--6---6---6-6-6-6---6--6---6-6-6-6----|

	"Without You, My Heart Is Blue"

	e||--------------------------------------|  (THIS IS THE EXTENSION)
	B||--------------------------------------|
	G||--------------------------------------|
	D||--------------------------------------|  !!!2 Times
	A||--7---7---7-7-7-7---7--7---7-7-7-7----|
	E||--5---5---5-5-5-5---5--5---5-5-5-5----|

	(BACKGROUND RHYTHM FOR EXTENSION:) (IF ELSE JUST SKIP)

	e||--------------------------------------|
	B||--------------------------------------|
	G||--------------------------------------|
	D||--5--5~----5--5~----5--5~----5--5~----|
	A||--3--3~----3--3~----3--3~----3--3~----|
	E||--------------------------------------|

e||--------------------------------------|
B||--------------------------------------|
G||--------------------------------------|  2 Times
D||--7---7---7-7-7-7---7--7---7-7-7-7----|
A||--5---5---5-5-5-5---5--5---5-5-5-5----|
E||--------------------------------------|

e||--------------------------------------|
B||--------------------------------------|
G||--------------------------------------|  2 Times
D||--------------------------------------|
A||--9---9---9-9-9-9---9--9---9-9-9-9----|
E||--7---7---7-7-7-7---7--7---7-7-7-7----|

e||--------------------------------------|
B||--------------------------------------|
G||--------------------------------------|
D||--------------------------------------|
A||--5---5---5-5-5-5---5--5---5-5-5-5----|
E||--3---3---3-3-3-3---3--3---3-3-3-3----|

e||--------------------------------------|
B||--------------------------------------|
G||--------------------------------------|
D||--------------------------------------|
A||--8---8---8-8-8-8---8--8---8-8-8-8----|
E||--6---6---6-6-6-6---6--6---6-6-6-6----|

e||--------------------------------------|
B||--------------------------------------|
G||--------------------------------------|  2 Times
D||--7---7---7-7-7-7---7--7---7-7-7-7----|
A||--5---5---5-5-5-5---5--5---5-5-5-5----|
E||--------------------------------------|


---------------------------------------------------------------------------|
-Break:--------------------------------------------------------------------|
---------------------------------------------------------------------------|

""

So, Much Pain, May Come, Our Way...

There May Come A Day Where We Have Nothing Left To Say

""

---------------------------------------------------------------------------|
-Chorus:-------------------------------------------------------------------|
---------------------------------------------------------------------------|

""

When The Conversation Stops, And We're Facing Our Defeat

I'll Be Next To You And You'll Be Right There Next To Me

Then I'll Say

""

"GIRL!"

(Background Distorted Guitar Identical to Last Chorus)

e||--------------------------------------|
B||--------------------------------------|
G||--------------------------------------|  2 Times
D||--7---7---7-7-7-7---7--7---7-7-7-7----|
A||--5---5---5-5-5-5---5--5---5-5-5-5----|
E||--------------------------------------|

e||--------------------------------------|
B||--------------------------------------|
G||--------------------------------------|  2 Times
D||--------------------------------------|
A||--9---9---9-9-9-9---9--9---9-9-9-9----|
E||--7---7---7-7-7-7---7--7---7-7-7-7----|

e||--------------------------------------|
B||--------------------------------------|
G||--------------------------------------|
D||--------------------------------------|
A||--5---5---5-5-5-5---5--5---5-5-5-5----|
E||--3---3---3-3-3-3---3--3---3-3-3-3----|

e||--------------------------------------|
B||--------------------------------------|
G||--------------------------------------|
D||--------------------------------------|
A||--8---8---8-8-8-8---8--8---8-8-8-8----|
E||--6---6---6-6-6-6---6--6---6-6-6-6----|

"Without You, My Heart Is Blue"

e||--------------------------------------|  (THIS IS THE EXTENSION)
B||--------------------------------------|
G||--------------------------------------|
D||--------------------------------------|  !!!2 Times
A||--7---7---7-7-7-7---7--7---7-7-7-7----|
E||--5---5---5-5-5-5---5--5---5-5-5-5----|

e||--------------------------------------|
B||--------------------------------------|
G||--------------------------------------|  2 Times
D||--7---7---7-7-7-7---7--7---7-7-7-7----|
A||--5---5---5-5-5-5---5--5---5-5-5-5----|
E||--------------------------------------|

e||--------------------------------------|
B||--------------------------------------|
G||--------------------------------------|  2 Times
D||--------------------------------------|
A||--9---9---9-9-9-9---9--9---9-9-9-9----|
E||--7---7---7-7-7-7---7--7---7-7-7-7----|

e||--------------------------------------|
B||--------------------------------------|
G||--------------------------------------|
D||--------------------------------------|
A||--5---5---5-5-5-5---5--5---5-5-5-5----|
E||--3---3---3-3-3-3---3--3---3-3-3-3----|

e||--------------------------------------|
B||--------------------------------------|
G||--------------------------------------|
D||--------------------------------------|
A||--8---8---8-8-8-8---8--8---8-8-8-8----|
E||--6---6---6-6-6-6---6--6---6-6-6-6----|

e||--------------------------------------|
B||--------------------------------------|
G||--------------------------------------|
D||--7---7---7-7-7-7---7--7---7-7-7-7----|
A||--5---5---5-5-5-5---5--5---5-5-5-5----|
E||--------------------------------------|

(Acoustic Over Last 2 bars (Simoultanious, in other words):)

e||--------------------------------------|
B||--------------------------------------|
G||--------------------------------------|
D||--7---7---7-4-2-7---7--7---7-4-2-4----|
A||--5---5---5-2-0-5---5--5---5-2-0-2----|
E||--------------------------------------|




THE END

e||-------------------------------|
B||-------------------------------|
G||-------------------------------| (Overdriven Part)
D||--7---7---7-7-7-7---7-7-7-7----|
A||--5---5---5-5-5-5---5-5-5-5----|
E||-------------------------------|

e||-------------|
B||-------------|
G||-------------|
D||-7-7-7-7~\\\-|
A||-5-5-5-5~\\\-|
E||-------------|

(Acoustic ending)

e||-----|
B||-----|
G||-----|
D||--7--|
A||--5--|
E||-----|

Hope I did okay

-Nargacuga667
Tap to rate this tab
# A B C D E F G H I J K L M N O P Q R S T U V W X Y Z